ISO-10303-21;
HEADER;
FILE_DESCRIPTION (( 'STEP AP203' ),
    '1' );
FILE_NAME ('1.5.4.23-ZXG-9.5-1000.STEP',
    '2024-05-29T06:51:08',
    ( '' ),
    ( '' ),
    'SwSTEP 2.0',
    'SolidWorks 2021',
    '' );
FILE_SCHEMA (( 'CONFIG_CONTROL_DESIGN' ));
ENDSEC;

DATA;
#1 = AXIS2_PLACEMENT_3D ( 'NONE', #229, #16, #283 ) ;
#2 = PRODUCT_DEFINITION ( 'Î´Öª', '', #115, #281 ) ;
#3 = FACE_OUTER_BOUND ( 'NONE', #296, .T. ) ;
#4 = APPROVAL_PERSON_ORGANIZATION ( #197, #12, #146 ) ;
#5 = APPROVAL_DATE_TIME ( #295, #199 ) ;
#6 = CARTESIAN_POINT ( 'NONE',  ( -1.500000000000000444, 0.05000000000000000278, -0.5000000000000000000 ) ) ;
#7 = EDGE_LOOP ( 'NONE', ( #78, #271 ) ) ;
#8 = SECURITY_CLASSIFICATION ( '', '', #9 ) ;
#9 = SECURITY_CLASSIFICATION_LEVEL ( 'unclassified' ) ;
#10 = ORIENTED_EDGE ( 'NONE', *, *, #208, .T. ) ;
#11 = VERTEX_POINT ( 'NONE', #177 ) ;
#12 = APPROVAL ( #47, 'Î´Ö¸¶¨' ) ;
#13 = ORIENTED_EDGE ( 'NONE', *, *, #104, .T. ) ;
#14 = VECTOR ( 'NONE', #183, 1000.000000000000000 ) ;
#15 = LOCAL_TIME ( 14, 51, 8.000000000000000000, #57 ) ;
#16 = DIRECTION ( 'NONE',  ( 0.000000000000000000, 1.000000000000000000, 0.000000000000000000 ) ) ;
#17 = UNCERTAINTY_MEASURE_WITH_UNIT (LENGTH_MEASURE( 1.000000000000000082E-05 ), #264, 'distance_accuracy_value', 'NONE');
#18 = DIRECTION ( 'NONE',  ( -0.000000000000000000, -1.000000000000000000, -0.000000000000000000 ) ) ;
#19 = LINE ( 'NONE', #304, #45 ) ;
#20 = DIRECTION ( 'NONE',  ( 0.000000000000000000, 0.000000000000000000, 1.000000000000000000 ) ) ;
#21 = CARTESIAN_POINT ( 'NONE',  ( 0.000000000000000000, 0.000000000000000000, -4.750000000000000000 ) ) ;
#22 = ADVANCED_FACE ( 'NONE', ( #147 ), #122, .T. ) ;
#23 = CIRCLE ( 'NONE', #53, 4.750000000000000000 ) ;
#24 = DATE_AND_TIME ( #138, #269 ) ;
#25 = DIRECTION ( 'NONE',  ( 0.000000000000000000, 0.000000000000000000, 1.000000000000000000 ) ) ;
#26 = DIRECTION ( 'NONE',  ( -0.000000000000000000, -1.000000000000000000, -0.000000000000000000 ) ) ;
#27 =( GEOMETRIC_REPRESENTATION_CONTEXT ( 3 ) GLOBAL_UNCERTAINTY_ASSIGNED_CONTEXT ( ( #17 ) ) GLOBAL_UNIT_ASSIGNED_CONTEXT ( ( #264, #143, #216 ) ) REPRESENTATION_CONTEXT ( 'NONE', 'WORKASPACE' ) );
#28 = ORIENTED_EDGE ( 'NONE', *, *, #155, .T. ) ;
#29 = ORIENTED_EDGE ( 'NONE', *, *, #210, .T. ) ;
#30 = VERTEX_POINT ( 'NONE', #194 ) ;
#31 = ORIENTED_EDGE ( 'NONE', *, *, #96, .T. ) ;
#32 = CC_DESIGN_PERSON_AND_ORGANIZATION_ASSIGNMENT ( #270, #175, ( #2 ) ) ;
#33 = CALENDAR_DATE ( 2024, 29, 5 ) ;
#34 = ORIENTED_EDGE ( 'NONE', *, *, #125, .T. ) ;
#35 = DIRECTION ( 'NONE',  ( 0.000000000000000000, 1.000000000000000000, 0.000000000000000000 ) ) ;
#36 = LINE ( 'NONE', #209, #187 ) ;
#37 = ADVANCED_BREP_SHAPE_REPRESENTATION ( '1.5.4.23-ZXG-9.5-1000', ( #60, #165 ), #27 ) ;
#38 = CARTESIAN_POINT ( 'NONE',  ( 0.000000000000000000, 0.05000000000000000278, 0.000000000000000000 ) ) ;
#39 = DIRECTION ( 'NONE',  ( 1.000000000000000000, 0.000000000000000000, 0.000000000000000000 ) ) ;
#40 = AXIS2_PLACEMENT_3D ( 'NONE', #307, #35, #127 ) ;
#41 = EDGE_CURVE ( 'NONE', #123, #11, #293, .T. ) ;
#42 = DIRECTION ( 'NONE',  ( 2.168404344971008868E-16, 0.000000000000000000, 1.000000000000000000 ) ) ;
#43 = CC_DESIGN_PERSON_AND_ORGANIZATION_ASSIGNMENT ( #71, #112, ( #230 ) ) ;
#44 = DIRECTION ( 'NONE',  ( 0.000000000000000000, 0.000000000000000000, 1.000000000000000000 ) ) ;
#45 = VECTOR ( 'NONE', #105, 1000.000000000000000 ) ;
#46 = CARTESIAN_POINT ( 'NONE',  ( -1.500000000000000444, 0.000000000000000000, -0.5000000000000000000 ) ) ;
#47 = APPROVAL_STATUS ( 'not_yet_approved' ) ;
#48 = ORIENTED_EDGE ( 'NONE', *, *, #65, .T. ) ;
#49 = APPROVAL_DATE_TIME ( #272, #12 ) ;
#50 = EDGE_LOOP ( 'NONE', ( #176, #245 ) ) ;
#51 = PERSON_AND_ORGANIZATION ( #130, #56 ) ;
#52 = ORIENTED_EDGE ( 'NONE', *, *, #137, .F. ) ;
#53 = AXIS2_PLACEMENT_3D ( 'NONE', #129, #84, #20 ) ;
#54 = AXIS2_PLACEMENT_3D ( 'NONE', #114, #237, #74 ) ;
#55 = ORIENTED_EDGE ( 'NONE', *, *, #186, .T. ) ;
#56 = ORGANIZATION ( 'Î´Ö¸¶¨', 'Î´Ö¸¶¨', '' ) ;
#57 = COORDINATED_UNIVERSAL_TIME_OFFSET ( 8, 0, .AHEAD. ) ;
#58 = ORIENTED_EDGE ( 'NONE', *, *, #65, .F. ) ;
#59 = LINE ( 'NONE', #185, #275 ) ;
#60 = MANIFOLD_SOLID_BREP ( 'Í¹Ì¨-À­Éì1', #182 ) ;
#61 = LINE ( 'NONE', #160, #14 ) ;
#62 = AXIS2_PLACEMENT_3D ( 'NONE', #306, #207, #42 ) ;
#63 = CARTESIAN_POINT ( 'NONE',  ( 0.000000000000000000, 0.000000000000000000, 0.000000000000000000 ) ) ;
#64 = CARTESIAN_POINT ( 'NONE',  ( 5.817072295949927426E-16, 0.000000000000000000, 4.750000000000000000 ) ) ;
#65 = EDGE_CURVE ( 'NONE', #30, #212, #149, .T. ) ;
#66 = PLANE ( 'NONE',  #40 ) ;
#67 = ADVANCED_FACE ( 'NONE', ( #98, #162 ), #279, .T. ) ;
#68 = CC_DESIGN_APPROVAL ( #12, ( #115 ) ) ;
#69 = PLANE ( 'NONE',  #94 ) ;
#70 = APPROVAL_ROLE ( '' ) ;
#71 = PERSON_AND_ORGANIZATION ( #130, #56 ) ;
#72 = CARTESIAN_POINT ( 'NONE',  ( -1.500000000000000444, 0.000000000000000000, -0.5000000000000000000 ) ) ;
#73 = VERTEX_POINT ( 'NONE', #303 ) ;
#74 = DIRECTION ( 'NONE',  ( 0.000000000000000000, 0.000000000000000000, 1.000000000000000000 ) ) ;
#75 = ADVANCED_FACE ( 'NONE', ( #254 ), #204, .T. ) ;
#76 = ORIENTED_EDGE ( 'NONE', *, *, #116, .F. ) ;
#77 = CALENDAR_DATE ( 2024, 29, 5 ) ;
#78 = ORIENTED_EDGE ( 'NONE', *, *, #137, .T. ) ;
#79 = ORIENTED_EDGE ( 'NONE', *, *, #155, .F. ) ;
#80 = VERTEX_POINT ( 'NONE', #180 ) ;
#81 = CALENDAR_DATE ( 2024, 29, 5 ) ;
#82 = VERTEX_POINT ( 'NONE', #305 ) ;
#83 = ORIENTED_EDGE ( 'NONE', *, *, #263, .F. ) ;
#84 = DIRECTION ( 'NONE',  ( 0.000000000000000000, 1.000000000000000000, 0.000000000000000000 ) ) ;
#85 = DIRECTION ( 'NONE',  ( -1.000000000000000000, -0.000000000000000000, -0.000000000000000000 ) ) ;
#86 = FACE_OUTER_BOUND ( 'NONE', #126, .T. ) ;
#87 = CARTESIAN_POINT ( 'NONE',  ( 1.499999999999999556, 0.05000000000000000278, -0.5000000000000000000 ) ) ;
#88 = CC_DESIGN_DATE_AND_TIME_ASSIGNMENT ( #266, #297, ( #2 ) ) ;
#89 = VECTOR ( 'NONE', #39, 1000.000000000000000 ) ;
#90 = CIRCLE ( 'NONE', #54, 4.750000000000000000 ) ;
#91 = PERSON_AND_ORGANIZATION ( #130, #56 ) ;
#92 = CARTESIAN_POINT ( 'NONE',  ( 5.817072295949927426E-16, 0.05000000000000000278, 4.750000000000000000 ) ) ;
#93 = VECTOR ( 'NONE', #119, 1000.000000000000000 ) ;
#94 = AXIS2_PLACEMENT_3D ( 'NONE', #171, #289, #262 ) ;
#95 = CARTESIAN_POINT ( 'NONE',  ( -1.500000000000000222, 0.05000000000000000278, 0.5000000000000000000 ) ) ;
#96 = EDGE_CURVE ( 'NONE', #11, #223, #163, .T. ) ;
#97 = DIRECTION ( 'NONE',  ( -2.168404344971008868E-16, 0.000000000000000000, -1.000000000000000000 ) ) ;
#98 = FACE_OUTER_BOUND ( 'NONE', #7, .T. ) ;
#99 = DATE_TIME_ROLE ( 'classification_date' ) ;
#100 = EDGE_LOOP ( 'NONE', ( #277, #178, #238, #58 ) ) ;
#101 = ORIENTED_EDGE ( 'NONE', *, *, #96, .F. ) ;
#102 = AXIS2_PLACEMENT_3D ( 'NONE', #63, #106, #161 ) ;
#103 = EDGE_LOOP ( 'NONE', ( #79, #243, #249, #31 ) ) ;
#104 = EDGE_CURVE ( 'NONE', #212, #118, #19, .T. ) ;
#105 = DIRECTION ( 'NONE',  ( -0.000000000000000000, -1.000000000000000000, -0.000000000000000000 ) ) ;
#106 = DIRECTION ( 'NONE',  ( 0.000000000000000000, 1.000000000000000000, 0.000000000000000000 ) ) ;
#107 = DIRECTION ( 'NONE',  ( 1.000000000000000000, 0.000000000000000000, 0.000000000000000000 ) ) ;
#108 = AXIS2_PLACEMENT_3D ( 'NONE', #215, #213, #25 ) ;
#109 = CC_DESIGN_PERSON_AND_ORGANIZATION_ASSIGNMENT ( #248, #117, ( #115 ) ) ;
#110 = CARTESIAN_POINT ( 'NONE',  ( 1.499999999999999556, 0.000000000000000000, -0.5000000000000000000 ) ) ;
#111 = DIRECTION ( 'NONE',  ( 0.000000000000000000, 0.000000000000000000, -1.000000000000000000 ) ) ;
#112 = PERSON_AND_ORGANIZATION_ROLE ( 'design_owner' ) ;
#113 = LINE ( 'NONE', #167, #170 ) ;
#114 = CARTESIAN_POINT ( 'NONE',  ( 0.000000000000000000, 0.000000000000000000, 0.000000000000000000 ) ) ;
#115 = PRODUCT_DEFINITION_FORMATION_WITH_SPECIFIED_SOURCE ( 'ÈÎºÎ', '', #230, .NOT_KNOWN. ) ;
#116 = EDGE_CURVE ( 'NONE', #118, #82, #131, .T. ) ;
#117 = PERSON_AND_ORGANIZATION_ROLE ( 'creator' ) ;
#118 = VERTEX_POINT ( 'NONE', #203 ) ;
#119 = DIRECTION ( 'NONE',  ( 2.168404344971008868E-16, 0.000000000000000000, 1.000000000000000000 ) ) ;
#120 = APPROVAL_ROLE ( '' ) ;
#121 = CC_DESIGN_APPROVAL ( #199, ( #8 ) ) ;
#122 = PLANE ( 'NONE',  #164 ) ;
#123 = VERTEX_POINT ( 'NONE', #256 ) ;
#124 = SHAPE_DEFINITION_REPRESENTATION ( #134, #37 ) ;
#125 = EDGE_CURVE ( 'NONE', #223, #220, #59, .T. ) ;
#126 = EDGE_LOOP ( 'NONE', ( #200, #311, #151, #294 ) ) ;
#127 = DIRECTION ( 'NONE',  ( 0.000000000000000000, -0.000000000000000000, 1.000000000000000000 ) ) ;
#128 = DIRECTION ( 'NONE',  ( -0.000000000000000000, -1.000000000000000000, -0.000000000000000000 ) ) ;
#129 = CARTESIAN_POINT ( 'NONE',  ( 0.000000000000000000, 0.05000000000000000278, 0.000000000000000000 ) ) ;
#130 = PERSON ( 'Î´Ö¸¶¨', 'Î´Ö¸¶¨', 'Î´Ö¸¶¨', ('Î´Ö¸¶¨'), ('Î´Ö¸¶¨'), ('Î´Ö¸¶¨') ) ;
#131 = LINE ( 'NONE', #226, #152 ) ;
#132 = VECTOR ( 'NONE', #232, 1000.000000000000000 ) ;
#133 = APPROVAL_PERSON_ORGANIZATION ( #91, #241, #70 ) ;
#134 = PRODUCT_DEFINITION_SHAPE ( 'NONE', 'NONE',  #2 ) ;
#135 = DIRECTION ( 'NONE',  ( -0.000000000000000000, -1.000000000000000000, -0.000000000000000000 ) ) ;
#136 = DIRECTION ( 'NONE',  ( 1.000000000000000000, 0.000000000000000000, 0.000000000000000000 ) ) ;
#137 = EDGE_CURVE ( 'NONE', #80, #73, #23, .T. ) ;
#138 = CALENDAR_DATE ( 2024, 29, 5 ) ;
#139 = DIRECTION ( 'NONE',  ( 2.168404344971008868E-16, 0.000000000000000000, 1.000000000000000000 ) ) ;
#140 = CARTESIAN_POINT ( 'NONE',  ( 1.499999999999999556, 0.000000000000000000, -0.5000000000000000000 ) ) ;
#141 = ORIENTED_EDGE ( 'NONE', *, *, #116, .T. ) ;
#142 = PRODUCT_RELATED_PRODUCT_CATEGORY ( 'detail', '', ( #230 ) ) ;
#143 =( NAMED_UNIT ( * ) PLANE_ANGLE_UNIT ( ) SI_UNIT ( $, .RADIAN. ) );
#144 = AXIS2_PLACEMENT_3D ( 'NONE', #253, #18, #111 ) ;
#145 = APPROVAL_PERSON_ORGANIZATION ( #51, #199, #120 ) ;
#146 = APPROVAL_ROLE ( '' ) ;
#147 = FACE_OUTER_BOUND ( 'NONE', #202, .T. ) ;
#148 = PERSON_AND_ORGANIZATION_ROLE ( 'design_supplier' ) ;
#149 = LINE ( 'NONE', #244, #93 ) ;
#150 = COORDINATED_UNIVERSAL_TIME_OFFSET ( 8, 0, .AHEAD. ) ;
#151 = ORIENTED_EDGE ( 'NONE', *, *, #231, .T. ) ;
#152 = VECTOR ( 'NONE', #107, 1000.000000000000000 ) ;
#153 = AXIS2_PLACEMENT_3D ( 'NONE', #38, #206, #184 ) ;
#154 = EDGE_LOOP ( 'NONE', ( #28, #34, #157, #141 ) ) ;
#155 = EDGE_CURVE ( 'NONE', #82, #223, #284, .T. ) ;
#156 = PERSON_AND_ORGANIZATION ( #130, #56 ) ;
#157 = ORIENTED_EDGE ( 'NONE', *, *, #252, .T. ) ;
#158 = CC_DESIGN_PERSON_AND_ORGANIZATION_ASSIGNMENT ( #156, #242, ( #8 ) ) ;
#159 = FACE_OUTER_BOUND ( 'NONE', #298, .T. ) ;
#160 = CARTESIAN_POINT ( 'NONE',  ( -1.500000000000000444, 0.05000000000000000278, -0.5000000000000000000 ) ) ;
#161 = DIRECTION ( 'NONE',  ( 0.000000000000000000, 0.000000000000000000, 1.000000000000000000 ) ) ;
#162 = FACE_BOUND ( 'NONE', #100, .T. ) ;
#163 = LINE ( 'NONE', #87, #246 ) ;
#164 = AXIS2_PLACEMENT_3D ( 'NONE', #6, #274, #97 ) ;
#165 = AXIS2_PLACEMENT_3D ( 'NONE', #309, #44, #136 ) ;
#166 = ADVANCED_FACE ( 'NONE', ( #159 ), #225, .T. ) ;
#167 = CARTESIAN_POINT ( 'NONE',  ( -1.500000000000000444, 0.05000000000000000278, -0.5000000000000000000 ) ) ;
#168 = APPLICATION_PROTOCOL_DEFINITION ( 'international standard', 'config_control_design', 1994, #287 ) ;
#169 = COORDINATED_UNIVERSAL_TIME_OFFSET ( 8, 0, .AHEAD. ) ;
#170 = VECTOR ( 'NONE', #259, 1000.000000000000000 ) ;
#171 = CARTESIAN_POINT ( 'NONE',  ( -1.500000000000000444, 0.05000000000000000278, -0.5000000000000000000 ) ) ;
#172 = PERSON_AND_ORGANIZATION ( #130, #56 ) ;
#173 = LOCAL_TIME ( 14, 51, 8.000000000000000000, #150 ) ;
#174 = DIRECTION ( 'NONE',  ( -2.168404344971008868E-16, -0.000000000000000000, -1.000000000000000000 ) ) ;
#175 = PERSON_AND_ORGANIZATION_ROLE ( 'creator' ) ;
#176 = ORIENTED_EDGE ( 'NONE', *, *, #210, .F. ) ;
#177 = CARTESIAN_POINT ( 'NONE',  ( 1.499999999999999556, 0.05000000000000000278, -0.5000000000000000000 ) ) ;
#178 = ORIENTED_EDGE ( 'NONE', *, *, #41, .F. ) ;
#179 = ADVANCED_FACE ( 'NONE', ( #181, #227 ), #66, .F. ) ;
#180 = CARTESIAN_POINT ( 'NONE',  ( 0.000000000000000000, 0.05000000000000000278, -4.750000000000000000 ) ) ;
#181 = FACE_OUTER_BOUND ( 'NONE', #50, .T. ) ;
#182 = CLOSED_SHELL ( 'NONE', ( #217, #67, #179, #166, #75, #278, #22, #299 ) ) ;
#183 = DIRECTION ( 'NONE',  ( -1.000000000000000000, -0.000000000000000000, -0.000000000000000000 ) ) ;
#184 = DIRECTION ( 'NONE',  ( 0.000000000000000000, 0.000000000000000000, -1.000000000000000000 ) ) ;
#185 = CARTESIAN_POINT ( 'NONE',  ( -1.500000000000000444, 0.000000000000000000, -0.5000000000000000000 ) ) ;
#186 = EDGE_CURVE ( 'NONE', #212, #123, #280, .T. ) ;
#187 = VECTOR ( 'NONE', #128, 1000.000000000000000 ) ;
#188 = CC_DESIGN_SECURITY_CLASSIFICATION ( #8, ( #115 ) ) ;
#189 = CC_DESIGN_DATE_AND_TIME_ASSIGNMENT ( #195, #99, ( #8 ) ) ;
#190 = APPROVAL_STATUS ( 'not_yet_approved' ) ;
#191 = LINE ( 'NONE', #92, #300 ) ;
#192 = DIRECTION ( 'NONE',  ( 0.000000000000000000, 0.000000000000000000, -1.000000000000000000 ) ) ;
#193 = EDGE_CURVE ( 'NONE', #11, #30, #61, .T. ) ;
#194 = CARTESIAN_POINT ( 'NONE',  ( -1.500000000000000444, 0.05000000000000000278, -0.5000000000000000000 ) ) ;
#195 = DATE_AND_TIME ( #77, #240 ) ;
#196 = ORIENTED_EDGE ( 'NONE', *, *, #302, .T. ) ;
#197 = PERSON_AND_ORGANIZATION ( #130, #56 ) ;
#198 = VERTEX_POINT ( 'NONE', #21 ) ;
#199 = APPROVAL ( #276, 'Î´Ö¸¶¨' ) ;
#200 = ORIENTED_EDGE ( 'NONE', *, *, #265, .F. ) ;
#201 = LOCAL_TIME ( 14, 51, 8.000000000000000000, #221 ) ;
#202 = EDGE_LOOP ( 'NONE', ( #268, #273, #48, #13 ) ) ;
#203 = CARTESIAN_POINT ( 'NONE',  ( -1.500000000000000222, 0.000000000000000000, 0.5000000000000000000 ) ) ;
#204 = PLANE ( 'NONE',  #62 ) ;
#205 = CIRCLE ( 'NONE', #102, 4.750000000000000000 ) ;
#206 = DIRECTION ( 'NONE',  ( -0.000000000000000000, -1.000000000000000000, -0.000000000000000000 ) ) ;
#207 = DIRECTION ( 'NONE',  ( -1.000000000000000000, 0.000000000000000000, 2.168404344971008868E-16 ) ) ;
#208 = EDGE_CURVE ( 'NONE', #80, #198, #36, .T. ) ;
#209 = CARTESIAN_POINT ( 'NONE',  ( 0.000000000000000000, 0.05000000000000000278, -4.750000000000000000 ) ) ;
#210 = EDGE_CURVE ( 'NONE', #198, #219, #205, .T. ) ;
#211 = CARTESIAN_POINT ( 'NONE',  ( 1.499999999999999778, 0.05000000000000000278, 0.5000000000000000000 ) ) ;
#212 = VERTEX_POINT ( 'NONE', #282 ) ;
#213 = DIRECTION ( 'NONE',  ( 0.000000000000000000, 1.000000000000000000, 0.000000000000000000 ) ) ;
#214 = ORIENTED_EDGE ( 'NONE', *, *, #125, .F. ) ;
#215 = CARTESIAN_POINT ( 'NONE',  ( 0.000000000000000000, 0.05000000000000000278, 0.000000000000000000 ) ) ;
#216 =( NAMED_UNIT ( * ) SI_UNIT ( $, .STERADIAN. ) SOLID_ANGLE_UNIT ( ) );
#217 = ADVANCED_FACE ( 'NONE', ( #86 ), #255, .T. ) ;
#218 = COORDINATED_UNIVERSAL_TIME_OFFSET ( 8, 0, .AHEAD. ) ;
#219 = VERTEX_POINT ( 'NONE', #64 ) ;
#220 = VERTEX_POINT ( 'NONE', #72 ) ;
#221 = COORDINATED_UNIVERSAL_TIME_OFFSET ( 8, 0, .AHEAD. ) ;
#222 = CARTESIAN_POINT ( 'NONE',  ( 1.499999999999999556, 0.05000000000000000278, -0.5000000000000000000 ) ) ;
#223 = VERTEX_POINT ( 'NONE', #140 ) ;
#224 = ORIENTED_EDGE ( 'NONE', *, *, #239, .T. ) ;
#225 = CYLINDRICAL_SURFACE ( 'NONE', #144, 4.750000000000000000 ) ;
#226 = CARTESIAN_POINT ( 'NONE',  ( -1.500000000000000222, 0.000000000000000000, 0.5000000000000000000 ) ) ;
#227 = FACE_BOUND ( 'NONE', #154, .T. ) ;
#228 = CC_DESIGN_APPROVAL ( #241, ( #2 ) ) ;
#229 = CARTESIAN_POINT ( 'NONE',  ( 0.000000000000000000, 0.05000000000000000278, 0.000000000000000000 ) ) ;
#230 = PRODUCT ( '1.5.4.23-ZXG-9.5-1000', '1.5.4.23-ZXG-9.5-1000', '', ( #260 ) ) ;
#231 = EDGE_CURVE ( 'NONE', #219, #198, #90, .T. ) ;
#232 = DIRECTION ( 'NONE',  ( -2.168404344971008868E-16, -0.000000000000000000, -1.000000000000000000 ) ) ;
#233 = DIRECTION ( 'NONE',  ( -0.000000000000000000, -1.000000000000000000, -0.000000000000000000 ) ) ;
#234 = LINE ( 'NONE', #46, #247 ) ;
#235 = VECTOR ( 'NONE', #233, 1000.000000000000000 ) ;
#236 = LINE ( 'NONE', #211, #235 ) ;
#237 = DIRECTION ( 'NONE',  ( 0.000000000000000000, 1.000000000000000000, 0.000000000000000000 ) ) ;
#238 = ORIENTED_EDGE ( 'NONE', *, *, #186, .F. ) ;
#239 = EDGE_CURVE ( 'NONE', #123, #82, #236, .T. ) ;
#240 = LOCAL_TIME ( 14, 51, 8.000000000000000000, #218 ) ;
#241 = APPROVAL ( #190, 'Î´Ö¸¶¨' ) ;
#242 = PERSON_AND_ORGANIZATION_ROLE ( 'classification_officer' ) ;
#243 = ORIENTED_EDGE ( 'NONE', *, *, #239, .F. ) ;
#244 = CARTESIAN_POINT ( 'NONE',  ( -1.500000000000000444, 0.05000000000000000278, -0.5000000000000000000 ) ) ;
#245 = ORIENTED_EDGE ( 'NONE', *, *, #231, .F. ) ;
#246 = VECTOR ( 'NONE', #135, 1000.000000000000000 ) ;
#247 = VECTOR ( 'NONE', #139, 1000.000000000000000 ) ;
#248 = PERSON_AND_ORGANIZATION ( #130, #56 ) ;
#249 = ORIENTED_EDGE ( 'NONE', *, *, #41, .T. ) ;
#250 = CALENDAR_DATE ( 2024, 29, 5 ) ;
#251 = EDGE_LOOP ( 'NONE', ( #214, #101, #301, #196 ) ) ;
#252 = EDGE_CURVE ( 'NONE', #220, #118, #234, .T. ) ;
#253 = CARTESIAN_POINT ( 'NONE',  ( 0.000000000000000000, 0.05000000000000000278, 0.000000000000000000 ) ) ;
#254 = FACE_OUTER_BOUND ( 'NONE', #103, .T. ) ;
#255 = CYLINDRICAL_SURFACE ( 'NONE', #153, 4.750000000000000000 ) ;
#256 = CARTESIAN_POINT ( 'NONE',  ( 1.499999999999999778, 0.05000000000000000278, 0.5000000000000000000 ) ) ;
#257 = CC_DESIGN_PERSON_AND_ORGANIZATION_ASSIGNMENT ( #172, #148, ( #115 ) ) ;
#258 = CARTESIAN_POINT ( 'NONE',  ( -1.500000000000000222, 0.05000000000000000278, 0.5000000000000000000 ) ) ;
#259 = DIRECTION ( 'NONE',  ( -0.000000000000000000, -1.000000000000000000, -0.000000000000000000 ) ) ;
#260 = MECHANICAL_CONTEXT ( 'NONE', #287, 'mechanical' ) ;
#261 = AXIS2_PLACEMENT_3D ( 'NONE', #95, #192, #291 ) ;
#262 = DIRECTION ( 'NONE',  ( 1.000000000000000000, 0.000000000000000000, -0.000000000000000000 ) ) ;
#263 = EDGE_CURVE ( 'NONE', #73, #219, #191, .T. ) ;
#264 =( LENGTH_UNIT ( ) NAMED_UNIT ( * ) SI_UNIT ( .MILLI., .METRE. ) );
#265 = EDGE_CURVE ( 'NONE', #73, #80, #286, .T. ) ;
#266 = DATE_AND_TIME ( #250, #201 ) ;
#267 = APPLICATION_CONTEXT ( 'configuration controlled 3d designs of mechanical parts and assemblies' ) ;
#268 = ORIENTED_EDGE ( 'NONE', *, *, #252, .F. ) ;
#269 = LOCAL_TIME ( 14, 51, 8.000000000000000000, #169 ) ;
#270 = PERSON_AND_ORGANIZATION ( #130, #56 ) ;
#271 = ORIENTED_EDGE ( 'NONE', *, *, #265, .T. ) ;
#272 = DATE_AND_TIME ( #81, #173 ) ;
#273 = ORIENTED_EDGE ( 'NONE', *, *, #302, .F. ) ;
#274 = DIRECTION ( 'NONE',  ( 1.000000000000000000, 0.000000000000000000, -2.168404344971008868E-16 ) ) ;
#275 = VECTOR ( 'NONE', #85, 1000.000000000000000 ) ;
#276 = APPROVAL_STATUS ( 'not_yet_approved' ) ;
#277 = ORIENTED_EDGE ( 'NONE', *, *, #193, .F. ) ;
#278 = ADVANCED_FACE ( 'NONE', ( #290 ), #69, .T. ) ;
#279 = PLANE ( 'NONE',  #1 ) ;
#280 = LINE ( 'NONE', #258, #89 ) ;
#281 = DESIGN_CONTEXT ( 'detailed design', #267, 'design' ) ;
#282 = CARTESIAN_POINT ( 'NONE',  ( -1.500000000000000222, 0.05000000000000000278, 0.5000000000000000000 ) ) ;
#283 = DIRECTION ( 'NONE',  ( 0.000000000000000000, -0.000000000000000000, 1.000000000000000000 ) ) ;
#284 = LINE ( 'NONE', #110, #132 ) ;
#285 = VECTOR ( 'NONE', #174, 1000.000000000000000 ) ;
#286 = CIRCLE ( 'NONE', #108, 4.750000000000000000 ) ;
#287 = APPLICATION_CONTEXT ( 'configuration controlled 3d designs of mechanical parts and assemblies' ) ;
#288 = PLANE ( 'NONE',  #261 ) ;
#289 = DIRECTION ( 'NONE',  ( 0.000000000000000000, 0.000000000000000000, 1.000000000000000000 ) ) ;
#290 = FACE_OUTER_BOUND ( 'NONE', #251, .T. ) ;
#291 = DIRECTION ( 'NONE',  ( -1.000000000000000000, 0.000000000000000000, -0.000000000000000000 ) ) ;
#292 = ORIENTED_EDGE ( 'NONE', *, *, #104, .F. ) ;
#293 = LINE ( 'NONE', #222, #285 ) ;
#294 = ORIENTED_EDGE ( 'NONE', *, *, #208, .F. ) ;
#295 = DATE_AND_TIME ( #33, #15 ) ;
#296 = EDGE_LOOP ( 'NONE', ( #76, #292, #55, #224 ) ) ;
#297 = DATE_TIME_ROLE ( 'creation_date' ) ;
#298 = EDGE_LOOP ( 'NONE', ( #83, #52, #10, #29 ) ) ;
#299 = ADVANCED_FACE ( 'NONE', ( #3 ), #288, .T. ) ;
#300 = VECTOR ( 'NONE', #26, 1000.000000000000000 ) ;
#301 = ORIENTED_EDGE ( 'NONE', *, *, #193, .T. ) ;
#302 = EDGE_CURVE ( 'NONE', #30, #220, #113, .T. ) ;
#303 = CARTESIAN_POINT ( 'NONE',  ( 5.817072295949927426E-16, 0.05000000000000000278, 4.750000000000000000 ) ) ;
#304 = CARTESIAN_POINT ( 'NONE',  ( -1.500000000000000222, 0.05000000000000000278, 0.5000000000000000000 ) ) ;
#305 = CARTESIAN_POINT ( 'NONE',  ( 1.499999999999999778, 0.000000000000000000, 0.5000000000000000000 ) ) ;
#306 = CARTESIAN_POINT ( 'NONE',  ( 1.499999999999999556, 0.05000000000000000278, -0.5000000000000000000 ) ) ;
#307 = CARTESIAN_POINT ( 'NONE',  ( 0.000000000000000000, 0.000000000000000000, 0.000000000000000000 ) ) ;
#308 = APPLICATION_PROTOCOL_DEFINITION ( 'international standard', 'config_control_design', 1994, #267 ) ;
#309 = CARTESIAN_POINT ( 'NONE',  ( 0.000000000000000000, 0.000000000000000000, 0.000000000000000000 ) ) ;
#310 = APPROVAL_DATE_TIME ( #24, #241 ) ;
#311 = ORIENTED_EDGE ( 'NONE', *, *, #263, .T. ) ;
ENDSEC;
END-ISO-10303-21;
