ISO-10303-21;
HEADER;
FILE_DESCRIPTION (( 'STEP AP203' ),
    '1' );
FILE_NAME ('1.5.3.6-ZXO-9.5-30.STEP',
    '2024-05-31T06:06:22',
    ( '' ),
    ( '' ),
    'SwSTEP 2.0',
    'SolidWorks 2021',
    '' );
FILE_SCHEMA (( 'CONFIG_CONTROL_DESIGN' ));
ENDSEC;

DATA;
#1 = EDGE_CURVE ( 'NONE', #35, #114, #22, .T. ) ;
#2 = ORIENTED_EDGE ( 'NONE', *, *, #73, .T. ) ;
#3 = LOCAL_TIME ( 14, 6, 22.00000000000000000, #54 ) ;
#4 = CARTESIAN_POINT ( 'NONE',  ( 0.000000000000000000, 0.05000000000000000278, 0.000000000000000000 ) ) ;
#5 = CYLINDRICAL_SURFACE ( 'NONE', #159, 4.750000000000000000 ) ;
#6 = DIRECTION ( 'NONE',  ( 0.000000000000000000, 0.000000000000000000, 1.000000000000000000 ) ) ;
#7 = DIRECTION ( 'NONE',  ( 0.000000000000000000, 1.000000000000000000, 0.000000000000000000 ) ) ;
#8 = APPROVAL_ROLE ( '' ) ;
#9 = PRODUCT_DEFINITION ( 'Î´Öª', '', #65, #84 ) ;
#10 = CARTESIAN_POINT ( 'NONE',  ( 0.000000000000000000, 0.05000000000000000278, 0.000000000000000000 ) ) ;
#11 = CARTESIAN_POINT ( 'NONE',  ( 1.836970198721029595E-18, 0.05000000000000000278, 0.01499999999999999944 ) ) ;
#12 = PERSON_AND_ORGANIZATION_ROLE ( 'creator' ) ;
#13 = EDGE_LOOP ( 'NONE', ( #24, #126 ) ) ;
#14 = AXIS2_PLACEMENT_3D ( 'NONE', #163, #83, #197 ) ;
#15 = APPROVAL_PERSON_ORGANIZATION ( #149, #129, #48 ) ;
#16 = EDGE_LOOP ( 'NONE', ( #243, #168 ) ) ;
#17 = CARTESIAN_POINT ( 'NONE',  ( 0.000000000000000000, 0.05000000000000000278, -4.750000000000000000 ) ) ;
#18 = FACE_OUTER_BOUND ( 'NONE', #103, .T. ) ;
#19 = CARTESIAN_POINT ( 'NONE',  ( 0.000000000000000000, 0.000000000000000000, 0.000000000000000000 ) ) ;
#20 = COORDINATED_UNIVERSAL_TIME_OFFSET ( 8, 0, .AHEAD. ) ;
#21 = EDGE_CURVE ( 'NONE', #227, #114, #93, .T. ) ;
#22 = LINE ( 'NONE', #11, #40 ) ;
#23 =( NAMED_UNIT ( * ) PLANE_ANGLE_UNIT ( ) SI_UNIT ( $, .RADIAN. ) );
#24 = ORIENTED_EDGE ( 'NONE', *, *, #178, .F. ) ;
#25 = DIRECTION ( 'NONE',  ( 0.000000000000000000, 1.000000000000000000, 0.000000000000000000 ) ) ;
#26 = PERSON_AND_ORGANIZATION_ROLE ( 'design_supplier' ) ;
#27 = EDGE_LOOP ( 'NONE', ( #244, #2 ) ) ;
#28 = DIRECTION ( 'NONE',  ( -0.000000000000000000, -1.000000000000000000, -0.000000000000000000 ) ) ;
#29 = APPROVAL_DATE_TIME ( #123, #195 ) ;
#30 = EDGE_CURVE ( 'NONE', #74, #109, #181, .T. ) ;
#31 = CARTESIAN_POINT ( 'NONE',  ( 0.000000000000000000, 0.05000000000000000278, -0.01499999999999999944 ) ) ;
#32 = PERSON_AND_ORGANIZATION ( #158, #57 ) ;
#33 = ORIENTED_EDGE ( 'NONE', *, *, #73, .F. ) ;
#34 = ORIENTED_EDGE ( 'NONE', *, *, #1, .T. ) ;
#35 = VERTEX_POINT ( 'NONE', #97 ) ;
#36 = EDGE_CURVE ( 'NONE', #164, #74, #69, .T. ) ;
#37 = LOCAL_TIME ( 14, 6, 22.00000000000000000, #98 ) ;
#38 = CC_DESIGN_SECURITY_CLASSIFICATION ( #61, ( #65 ) ) ;
#39 = CC_DESIGN_DATE_AND_TIME_ASSIGNMENT ( #206, #70, ( #9 ) ) ;
#40 = VECTOR ( 'NONE', #28, 1000.000000000000000 ) ;
#41 = APPROVAL_PERSON_ORGANIZATION ( #66, #194, #152 ) ;
#42 = CARTESIAN_POINT ( 'NONE',  ( 5.817072295949927426E-16, 0.05000000000000000278, 4.750000000000000000 ) ) ;
#43 = CARTESIAN_POINT ( 'NONE',  ( 0.000000000000000000, 0.05000000000000000278, -4.750000000000000000 ) ) ;
#44 = DATE_AND_TIME ( #124, #160 ) ;
#45 = CC_DESIGN_PERSON_AND_ORGANIZATION_ASSIGNMENT ( #116, #91, ( #65 ) ) ;
#46 = AXIS2_PLACEMENT_3D ( 'NONE', #19, #131, #224 ) ;
#47 = CARTESIAN_POINT ( 'NONE',  ( 0.000000000000000000, 0.000000000000000000, -4.750000000000000000 ) ) ;
#48 = APPROVAL_ROLE ( '' ) ;
#49 = CYLINDRICAL_SURFACE ( 'NONE', #14, 0.01499999999999999944 ) ;
#50 = LINE ( 'NONE', #42, #113 ) ;
#51 = CALENDAR_DATE ( 2024, 31, 5 ) ;
#52 = ADVANCED_FACE ( 'NONE', ( #241 ), #77, .T. ) ;
#53 = CARTESIAN_POINT ( 'NONE',  ( 0.000000000000000000, 0.000000000000000000, 0.000000000000000000 ) ) ;
#54 = COORDINATED_UNIVERSAL_TIME_OFFSET ( 8, 0, .AHEAD. ) ;
#55 = PERSON_AND_ORGANIZATION_ROLE ( 'design_owner' ) ;
#56 = APPROVAL_PERSON_ORGANIZATION ( #32, #195, #8 ) ;
#57 = ORGANIZATION ( 'Î´Ö¸¶¨', 'Î´Ö¸¶¨', '' ) ;
#58 = PRODUCT_DEFINITION_SHAPE ( 'NONE', 'NONE',  #9 ) ;
#59 = ORIENTED_EDGE ( 'NONE', *, *, #211, .T. ) ;
#60 = VERTEX_POINT ( 'NONE', #218 ) ;
#61 = SECURITY_CLASSIFICATION ( '', '', #242 ) ;
#62 = MANIFOLD_SOLID_BREP ( 'Í¹Ì¨-À­Éì1', #196 ) ;
#63 = LOCAL_TIME ( 14, 6, 22.00000000000000000, #192 ) ;
#64 = AXIS2_PLACEMENT_3D ( 'NONE', #213, #231, #67 ) ;
#65 = PRODUCT_DEFINITION_FORMATION_WITH_SPECIFIED_SOURCE ( 'ÈÎºÎ', '', #111, .NOT_KNOWN. ) ;
#66 = PERSON_AND_ORGANIZATION ( #158, #57 ) ;
#67 = DIRECTION ( 'NONE',  ( 0.000000000000000000, 0.000000000000000000, -1.000000000000000000 ) ) ;
#68 = ORIENTED_EDGE ( 'NONE', *, *, #36, .F. ) ;
#69 = LINE ( 'NONE', #17, #144 ) ;
#70 = DATE_TIME_ROLE ( 'creation_date' ) ;
#71 = CARTESIAN_POINT ( 'NONE',  ( 0.000000000000000000, 0.000000000000000000, 0.000000000000000000 ) ) ;
#72 = DIRECTION ( 'NONE',  ( 1.000000000000000000, 0.000000000000000000, 0.000000000000000000 ) ) ;
#73 = EDGE_CURVE ( 'NONE', #114, #227, #190, .T. ) ;
#74 = VERTEX_POINT ( 'NONE', #47 ) ;
#75 = DIRECTION ( 'NONE',  ( 0.000000000000000000, 1.000000000000000000, 0.000000000000000000 ) ) ;
#76 = APPROVAL_STATUS ( 'not_yet_approved' ) ;
#77 = CYLINDRICAL_SURFACE ( 'NONE', #134, 4.750000000000000000 ) ;
#78 = CIRCLE ( 'NONE', #247, 4.750000000000000000 ) ;
#79 = LOCAL_TIME ( 14, 6, 22.00000000000000000, #225 ) ;
#80 = CARTESIAN_POINT ( 'NONE',  ( 0.000000000000000000, 0.000000000000000000, -0.01499999999999999944 ) ) ;
#81 = AXIS2_PLACEMENT_3D ( 'NONE', #71, #135, #88 ) ;
#82 = EDGE_CURVE ( 'NONE', #60, #109, #50, .T. ) ;
#83 = DIRECTION ( 'NONE',  ( -0.000000000000000000, -1.000000000000000000, -0.000000000000000000 ) ) ;
#84 = DESIGN_CONTEXT ( 'detailed design', #245, 'design' ) ;
#85 = EDGE_LOOP ( 'NONE', ( #115, #155, #92, #212 ) ) ;
#86 = AXIS2_PLACEMENT_3D ( 'NONE', #53, #217, #234 ) ;
#87 = CC_DESIGN_APPROVAL ( #129, ( #65 ) ) ;
#88 = DIRECTION ( 'NONE',  ( 0.000000000000000000, -0.000000000000000000, 1.000000000000000000 ) ) ;
#89 = FACE_OUTER_BOUND ( 'NONE', #189, .T. ) ;
#90 = PLANE ( 'NONE',  #81 ) ;
#91 = PERSON_AND_ORGANIZATION_ROLE ( 'creator' ) ;
#92 = ORIENTED_EDGE ( 'NONE', *, *, #36, .T. ) ;
#93 = CIRCLE ( 'NONE', #46, 0.01499999999999999944 ) ;
#94 = DIRECTION ( 'NONE',  ( 0.000000000000000000, 0.000000000000000000, 1.000000000000000000 ) ) ;
#95 = PERSON_AND_ORGANIZATION ( #158, #57 ) ;
#96 = ORIENTED_EDGE ( 'NONE', *, *, #176, .F. ) ;
#97 = CARTESIAN_POINT ( 'NONE',  ( 1.836970198721029595E-18, 0.05000000000000000278, 0.01499999999999999944 ) ) ;
#98 = COORDINATED_UNIVERSAL_TIME_OFFSET ( 8, 0, .AHEAD. ) ;
#99 = ORIENTED_EDGE ( 'NONE', *, *, #21, .F. ) ;
#100 = SHAPE_DEFINITION_REPRESENTATION ( #58, #184 ) ;
#101 = CC_DESIGN_PERSON_AND_ORGANIZATION_ASSIGNMENT ( #141, #12, ( #9 ) ) ;
#102 = CIRCLE ( 'NONE', #171, 4.750000000000000000 ) ;
#103 = EDGE_LOOP ( 'NONE', ( #229, #246, #201, #68 ) ) ;
#104 = CALENDAR_DATE ( 2024, 31, 5 ) ;
#105 = AXIS2_PLACEMENT_3D ( 'NONE', #185, #7, #122 ) ;
#106 = CARTESIAN_POINT ( 'NONE',  ( 0.000000000000000000, 0.05000000000000000278, 0.000000000000000000 ) ) ;
#107 = CIRCLE ( 'NONE', #121, 4.750000000000000000 ) ;
#108 = DIRECTION ( 'NONE',  ( -0.000000000000000000, -1.000000000000000000, -0.000000000000000000 ) ) ;
#109 = VERTEX_POINT ( 'NONE', #145 ) ;
#110 = DIRECTION ( 'NONE',  ( -0.000000000000000000, -1.000000000000000000, -0.000000000000000000 ) ) ;
#111 = PRODUCT ( '1.5.3.6-ZXO-9.5-30', '1.5.3.6-ZXO-9.5-30', '', ( #146 ) ) ;
#112 = ORIENTED_EDGE ( 'NONE', *, *, #214, .T. ) ;
#113 = VECTOR ( 'NONE', #199, 1000.000000000000000 ) ;
#114 = VERTEX_POINT ( 'NONE', #180 ) ;
#115 = ORIENTED_EDGE ( 'NONE', *, *, #82, .F. ) ;
#116 = PERSON_AND_ORGANIZATION ( #158, #57 ) ;
#117 = EDGE_LOOP ( 'NONE', ( #170, #34, #99, #139 ) ) ;
#118 = DIRECTION ( 'NONE',  ( 0.000000000000000000, 1.000000000000000000, 0.000000000000000000 ) ) ;
#119 = PERSON_AND_ORGANIZATION_ROLE ( 'classification_officer' ) ;
#120 = ORIENTED_EDGE ( 'NONE', *, *, #1, .F. ) ;
#121 = AXIS2_PLACEMENT_3D ( 'NONE', #138, #118, #132 ) ;
#122 = DIRECTION ( 'NONE',  ( 0.000000000000000000, 0.000000000000000000, 1.000000000000000000 ) ) ;
#123 = DATE_AND_TIME ( #51, #3 ) ;
#124 = CALENDAR_DATE ( 2024, 31, 5 ) ;
#125 = ADVANCED_FACE ( 'NONE', ( #89, #161 ), #90, .F. ) ;
#126 = ORIENTED_EDGE ( 'NONE', *, *, #211, .F. ) ;
#127 = CYLINDRICAL_SURFACE ( 'NONE', #64, 0.01499999999999999944 ) ;
#128 = CIRCLE ( 'NONE', #175, 0.01499999999999999944 ) ;
#129 = APPROVAL ( #222, 'Î´Ö¸¶¨' ) ;
#130 = VECTOR ( 'NONE', #210, 1000.000000000000000 ) ;
#131 = DIRECTION ( 'NONE',  ( 0.000000000000000000, 1.000000000000000000, 0.000000000000000000 ) ) ;
#132 = DIRECTION ( 'NONE',  ( 0.000000000000000000, 0.000000000000000000, 1.000000000000000000 ) ) ;
#133 = APPROVAL_STATUS ( 'not_yet_approved' ) ;
#134 = AXIS2_PLACEMENT_3D ( 'NONE', #4, #151, #236 ) ;
#135 = DIRECTION ( 'NONE',  ( 0.000000000000000000, 1.000000000000000000, 0.000000000000000000 ) ) ;
#136 = CC_DESIGN_DATE_AND_TIME_ASSIGNMENT ( #235, #240, ( #61 ) ) ;
#137 = DIRECTION ( 'NONE',  ( 0.000000000000000000, 0.000000000000000000, 1.000000000000000000 ) ) ;
#138 = CARTESIAN_POINT ( 'NONE',  ( 0.000000000000000000, 0.000000000000000000, 0.000000000000000000 ) ) ;
#139 = ORIENTED_EDGE ( 'NONE', *, *, #214, .F. ) ;
#140 = AXIS2_PLACEMENT_3D ( 'NONE', #226, #191, #72 ) ;
#141 = PERSON_AND_ORGANIZATION ( #158, #57 ) ;
#142 = DATE_AND_TIME ( #104, #79 ) ;
#143 = CC_DESIGN_PERSON_AND_ORGANIZATION_ASSIGNMENT ( #150, #55, ( #111 ) ) ;
#144 = VECTOR ( 'NONE', #110, 1000.000000000000000 ) ;
#145 = CARTESIAN_POINT ( 'NONE',  ( 5.817072295949927426E-16, 0.000000000000000000, 4.750000000000000000 ) ) ;
#146 = MECHANICAL_CONTEXT ( 'NONE', #147, 'mechanical' ) ;
#147 = APPLICATION_CONTEXT ( 'configuration controlled 3d designs of mechanical parts and assemblies' ) ;
#148 = FACE_OUTER_BOUND ( 'NONE', #16, .T. ) ;
#149 = PERSON_AND_ORGANIZATION ( #158, #57 ) ;
#150 = PERSON_AND_ORGANIZATION ( #158, #57 ) ;
#151 = DIRECTION ( 'NONE',  ( -0.000000000000000000, -1.000000000000000000, -0.000000000000000000 ) ) ;
#152 = APPROVAL_ROLE ( '' ) ;
#153 = CC_DESIGN_PERSON_AND_ORGANIZATION_ASSIGNMENT ( #95, #26, ( #65 ) ) ;
#154 = CC_DESIGN_APPROVAL ( #195, ( #9 ) ) ;
#155 = ORIENTED_EDGE ( 'NONE', *, *, #200, .F. ) ;
#156 = AXIS2_PLACEMENT_3D ( 'NONE', #183, #75, #6 ) ;
#157 = CC_DESIGN_APPROVAL ( #194, ( #61 ) ) ;
#158 = PERSON ( 'Î´Ö¸¶¨', 'Î´Ö¸¶¨', 'Î´Ö¸¶¨', ('Î´Ö¸¶¨'), ('Î´Ö¸¶¨'), ('Î´Ö¸¶¨') ) ;
#159 = AXIS2_PLACEMENT_3D ( 'NONE', #106, #108, #179 ) ;
#160 = LOCAL_TIME ( 14, 6, 22.00000000000000000, #20 ) ;
#161 = FACE_BOUND ( 'NONE', #27, .T. ) ;
#162 = DIRECTION ( 'NONE',  ( 0.000000000000000000, 1.000000000000000000, 0.000000000000000000 ) ) ;
#163 = CARTESIAN_POINT ( 'NONE',  ( 0.000000000000000000, 0.05000000000000000278, 0.000000000000000000 ) ) ;
#164 = VERTEX_POINT ( 'NONE', #43 ) ;
#165 = DIRECTION ( 'NONE',  ( 0.000000000000000000, 1.000000000000000000, 0.000000000000000000 ) ) ;
#166 =( NAMED_UNIT ( * ) SI_UNIT ( $, .STERADIAN. ) SOLID_ANGLE_UNIT ( ) );
#167 = ADVANCED_FACE ( 'NONE', ( #148, #221 ), #203, .T. ) ;
#168 = ORIENTED_EDGE ( 'NONE', *, *, #182, .T. ) ;
#169 = FACE_OUTER_BOUND ( 'NONE', #117, .T. ) ;
#170 = ORIENTED_EDGE ( 'NONE', *, *, #178, .T. ) ;
#171 = AXIS2_PLACEMENT_3D ( 'NONE', #10, #162, #137 ) ;
#172 = ORIENTED_EDGE ( 'NONE', *, *, #30, .F. ) ;
#173 = DIRECTION ( 'NONE',  ( 0.000000000000000000, 0.000000000000000000, 1.000000000000000000 ) ) ;
#174 = APPROVAL_DATE_TIME ( #142, #194 ) ;
#175 = AXIS2_PLACEMENT_3D ( 'NONE', #187, #239, #173 ) ;
#176 = EDGE_CURVE ( 'NONE', #109, #74, #107, .T. ) ;
#177 = FACE_OUTER_BOUND ( 'NONE', #220, .T. ) ;
#178 = EDGE_CURVE ( 'NONE', #193, #35, #198, .T. ) ;
#179 = DIRECTION ( 'NONE',  ( 0.000000000000000000, 0.000000000000000000, -1.000000000000000000 ) ) ;
#180 = CARTESIAN_POINT ( 'NONE',  ( 1.836970198721029595E-18, 0.000000000000000000, 0.01499999999999999944 ) ) ;
#181 = CIRCLE ( 'NONE', #156, 4.750000000000000000 ) ;
#182 = EDGE_CURVE ( 'NONE', #60, #164, #102, .T. ) ;
#183 = CARTESIAN_POINT ( 'NONE',  ( 0.000000000000000000, 0.000000000000000000, 0.000000000000000000 ) ) ;
#184 = ADVANCED_BREP_SHAPE_REPRESENTATION ( '1.5.3.6-ZXO-9.5-30', ( #62, #140 ), #233 ) ;
#185 = CARTESIAN_POINT ( 'NONE',  ( 0.000000000000000000, 0.05000000000000000278, 0.000000000000000000 ) ) ;
#186 = APPLICATION_PROTOCOL_DEFINITION ( 'international standard', 'config_control_design', 1994, #147 ) ;
#187 = CARTESIAN_POINT ( 'NONE',  ( 0.000000000000000000, 0.05000000000000000278, 0.000000000000000000 ) ) ;
#188 = CALENDAR_DATE ( 2024, 31, 5 ) ;
#189 = EDGE_LOOP ( 'NONE', ( #172, #96 ) ) ;
#190 = CIRCLE ( 'NONE', #86, 0.01499999999999999944 ) ;
#191 = DIRECTION ( 'NONE',  ( 0.000000000000000000, 0.000000000000000000, 1.000000000000000000 ) ) ;
#192 = COORDINATED_UNIVERSAL_TIME_OFFSET ( 8, 0, .AHEAD. ) ;
#193 = VERTEX_POINT ( 'NONE', #237 ) ;
#194 = APPROVAL ( #76, 'Î´Ö¸¶¨' ) ;
#195 = APPROVAL ( #133, 'Î´Ö¸¶¨' ) ;
#196 = CLOSED_SHELL ( 'NONE', ( #230, #232, #167, #125, #52, #228 ) ) ;
#197 = DIRECTION ( 'NONE',  ( 0.000000000000000000, 0.000000000000000000, -1.000000000000000000 ) ) ;
#198 = CIRCLE ( 'NONE', #105, 0.01499999999999999944 ) ;
#199 = DIRECTION ( 'NONE',  ( -0.000000000000000000, -1.000000000000000000, -0.000000000000000000 ) ) ;
#200 = EDGE_CURVE ( 'NONE', #164, #60, #78, .T. ) ;
#201 = ORIENTED_EDGE ( 'NONE', *, *, #176, .T. ) ;
#202 = CALENDAR_DATE ( 2024, 31, 5 ) ;
#203 = PLANE ( 'NONE',  #216 ) ;
#204 = APPROVAL_DATE_TIME ( #44, #129 ) ;
#205 = CARTESIAN_POINT ( 'NONE',  ( 0.000000000000000000, 0.05000000000000000278, 0.000000000000000000 ) ) ;
#206 = DATE_AND_TIME ( #202, #37 ) ;
#207 = DIRECTION ( 'NONE',  ( 0.000000000000000000, -0.000000000000000000, 1.000000000000000000 ) ) ;
#208 = LINE ( 'NONE', #31, #130 ) ;
#209 = APPLICATION_PROTOCOL_DEFINITION ( 'international standard', 'config_control_design', 1994, #245 ) ;
#210 = DIRECTION ( 'NONE',  ( -0.000000000000000000, -1.000000000000000000, -0.000000000000000000 ) ) ;
#211 = EDGE_CURVE ( 'NONE', #35, #193, #128, .T. ) ;
#212 = ORIENTED_EDGE ( 'NONE', *, *, #30, .T. ) ;
#213 = CARTESIAN_POINT ( 'NONE',  ( 0.000000000000000000, 0.05000000000000000278, 0.000000000000000000 ) ) ;
#214 = EDGE_CURVE ( 'NONE', #193, #227, #208, .T. ) ;
#215 = PRODUCT_RELATED_PRODUCT_CATEGORY ( 'detail', '', ( #111 ) ) ;
#216 = AXIS2_PLACEMENT_3D ( 'NONE', #223, #165, #207 ) ;
#217 = DIRECTION ( 'NONE',  ( 0.000000000000000000, 1.000000000000000000, 0.000000000000000000 ) ) ;
#218 = CARTESIAN_POINT ( 'NONE',  ( 5.817072295949927426E-16, 0.05000000000000000278, 4.750000000000000000 ) ) ;
#219 = PERSON_AND_ORGANIZATION ( #158, #57 ) ;
#220 = EDGE_LOOP ( 'NONE', ( #120, #59, #112, #33 ) ) ;
#221 = FACE_BOUND ( 'NONE', #13, .T. ) ;
#222 = APPROVAL_STATUS ( 'not_yet_approved' ) ;
#223 = CARTESIAN_POINT ( 'NONE',  ( 0.000000000000000000, 0.05000000000000000278, 0.000000000000000000 ) ) ;
#224 = DIRECTION ( 'NONE',  ( 0.000000000000000000, 0.000000000000000000, 1.000000000000000000 ) ) ;
#225 = COORDINATED_UNIVERSAL_TIME_OFFSET ( 8, 0, .AHEAD. ) ;
#226 = CARTESIAN_POINT ( 'NONE',  ( 0.000000000000000000, 0.000000000000000000, 0.000000000000000000 ) ) ;
#227 = VERTEX_POINT ( 'NONE', #80 ) ;
#228 = ADVANCED_FACE ( 'NONE', ( #177 ), #127, .F. ) ;
#229 = ORIENTED_EDGE ( 'NONE', *, *, #182, .F. ) ;
#230 = ADVANCED_FACE ( 'NONE', ( #169 ), #49, .F. ) ;
#231 = DIRECTION ( 'NONE',  ( -0.000000000000000000, -1.000000000000000000, -0.000000000000000000 ) ) ;
#232 = ADVANCED_FACE ( 'NONE', ( #18 ), #5, .T. ) ;
#233 =( GEOMETRIC_REPRESENTATION_CONTEXT ( 3 ) GLOBAL_UNCERTAINTY_ASSIGNED_CONTEXT ( ( #249 ) ) GLOBAL_UNIT_ASSIGNED_CONTEXT ( ( #238, #23, #166 ) ) REPRESENTATION_CONTEXT ( 'NONE', 'WORKASPACE' ) );
#234 = DIRECTION ( 'NONE',  ( 0.000000000000000000, 0.000000000000000000, 1.000000000000000000 ) ) ;
#235 = DATE_AND_TIME ( #188, #63 ) ;
#236 = DIRECTION ( 'NONE',  ( 0.000000000000000000, 0.000000000000000000, -1.000000000000000000 ) ) ;
#237 = CARTESIAN_POINT ( 'NONE',  ( 0.000000000000000000, 0.05000000000000000278, -0.01499999999999999944 ) ) ;
#238 =( LENGTH_UNIT ( ) NAMED_UNIT ( * ) SI_UNIT ( .MILLI., .METRE. ) );
#239 = DIRECTION ( 'NONE',  ( 0.000000000000000000, 1.000000000000000000, 0.000000000000000000 ) ) ;
#240 = DATE_TIME_ROLE ( 'classification_date' ) ;
#241 = FACE_OUTER_BOUND ( 'NONE', #85, .T. ) ;
#242 = SECURITY_CLASSIFICATION_LEVEL ( 'unclassified' ) ;
#243 = ORIENTED_EDGE ( 'NONE', *, *, #200, .T. ) ;
#244 = ORIENTED_EDGE ( 'NONE', *, *, #21, .T. ) ;
#245 = APPLICATION_CONTEXT ( 'configuration controlled 3d designs of mechanical parts and assemblies' ) ;
#246 = ORIENTED_EDGE ( 'NONE', *, *, #82, .T. ) ;
#247 = AXIS2_PLACEMENT_3D ( 'NONE', #205, #25, #94 ) ;
#248 = CC_DESIGN_PERSON_AND_ORGANIZATION_ASSIGNMENT ( #219, #119, ( #61 ) ) ;
#249 = UNCERTAINTY_MEASURE_WITH_UNIT (LENGTH_MEASURE( 1.000000000000000082E-05 ), #238, 'distance_accuracy_value', 'NONE');
ENDSEC;
END-ISO-10303-21;
