ISO-10303-21;
HEADER;
FILE_DESCRIPTION (( 'STEP AP203' ),
    '1' );
FILE_NAME ('1.5.3.10-ZXO-9.5-100.STEP',
    '2024-05-31T06:04:19',
    ( '' ),
    ( '' ),
    'SwSTEP 2.0',
    'SolidWorks 2021',
    '' );
FILE_SCHEMA (( 'CONFIG_CONTROL_DESIGN' ));
ENDSEC;

DATA;
#1 = APPLICATION_CONTEXT ( 'configuration controlled 3d designs of mechanical parts and assemblies' ) ;
#2 = CC_DESIGN_PERSON_AND_ORGANIZATION_ASSIGNMENT ( #40, #192, ( #45 ) ) ;
#3 = LINE ( 'NONE', #84, #134 ) ;
#4 = ORGANIZATION ( 'Î´Ö¸¶¨', 'Î´Ö¸¶¨', '' ) ;
#5 = CARTESIAN_POINT ( 'NONE',  ( 0.000000000000000000, 0.05000000000000000278, 0.000000000000000000 ) ) ;
#6 = DIRECTION ( 'NONE',  ( -0.000000000000000000, -1.000000000000000000, -0.000000000000000000 ) ) ;
#7 = AXIS2_PLACEMENT_3D ( 'NONE', #15, #164, #131 ) ;
#8 = VERTEX_POINT ( 'NONE', #158 ) ;
#9 = DIRECTION ( 'NONE',  ( 0.000000000000000000, 1.000000000000000000, 0.000000000000000000 ) ) ;
#10 = DATE_AND_TIME ( #185, #157 ) ;
#11 = CC_DESIGN_PERSON_AND_ORGANIZATION_ASSIGNMENT ( #35, #54, ( #197 ) ) ;
#12 = EDGE_LOOP ( 'NONE', ( #114, #208 ) ) ;
#13 = COORDINATED_UNIVERSAL_TIME_OFFSET ( 8, 0, .AHEAD. ) ;
#14 = EDGE_LOOP ( 'NONE', ( #26, #150, #210, #187 ) ) ;
#15 = CARTESIAN_POINT ( 'NONE',  ( 0.000000000000000000, 0.000000000000000000, 0.000000000000000000 ) ) ;
#16 = EDGE_CURVE ( 'NONE', #34, #8, #214, .T. ) ;
#17 = CARTESIAN_POINT ( 'NONE',  ( 0.000000000000000000, 0.05000000000000000278, -0.05000000000000000278 ) ) ;
#18 = AXIS2_PLACEMENT_3D ( 'NONE', #5, #178, #86 ) ;
#19 = ADVANCED_FACE ( 'NONE', ( #248, #228 ), #97, .F. ) ;
#20 = PERSON_AND_ORGANIZATION ( #81, #4 ) ;
#21 = PRODUCT_DEFINITION_SHAPE ( 'NONE', 'NONE',  #88 ) ;
#22 = EDGE_CURVE ( 'NONE', #145, #34, #28, .T. ) ;
#23 = PLANE ( 'NONE',  #182 ) ;
#24 = CARTESIAN_POINT ( 'NONE',  ( 0.000000000000000000, 0.000000000000000000, 0.000000000000000000 ) ) ;
#25 = FACE_OUTER_BOUND ( 'NONE', #39, .T. ) ;
#26 = ORIENTED_EDGE ( 'NONE', *, *, #83, .F. ) ;
#27 = CARTESIAN_POINT ( 'NONE',  ( 0.000000000000000000, 0.05000000000000000278, 0.000000000000000000 ) ) ;
#28 = CIRCLE ( 'NONE', #202, 0.05000000000000000278 ) ;
#29 = VERTEX_POINT ( 'NONE', #121 ) ;
#30 = CARTESIAN_POINT ( 'NONE',  ( 6.123233995736766344E-18, 0.000000000000000000, 0.05000000000000000278 ) ) ;
#31 = ADVANCED_FACE ( 'NONE', ( #25, #234 ), #23, .T. ) ;
#32 = PERSON_AND_ORGANIZATION ( #81, #4 ) ;
#33 = PERSON_AND_ORGANIZATION ( #81, #4 ) ;
#34 = VERTEX_POINT ( 'NONE', #66 ) ;
#35 = PERSON_AND_ORGANIZATION ( #81, #4 ) ;
#36 = ORIENTED_EDGE ( 'NONE', *, *, #230, .F. ) ;
#37 = APPROVAL_DATE_TIME ( #211, #212 ) ;
#38 = AXIS2_PLACEMENT_3D ( 'NONE', #170, #173, #231 ) ;
#39 = EDGE_LOOP ( 'NONE', ( #126, #48 ) ) ;
#40 = PERSON_AND_ORGANIZATION ( #81, #4 ) ;
#41 = CC_DESIGN_APPROVAL ( #246, ( #88 ) ) ;
#42 = EDGE_CURVE ( 'NONE', #29, #107, #75, .T. ) ;
#43 = CARTESIAN_POINT ( 'NONE',  ( 0.000000000000000000, 0.05000000000000000278, 0.000000000000000000 ) ) ;
#44 = CYLINDRICAL_SURFACE ( 'NONE', #172, 0.05000000000000000278 ) ;
#45 = SECURITY_CLASSIFICATION ( '', '', #190 ) ;
#46 = CC_DESIGN_PERSON_AND_ORGANIZATION_ASSIGNMENT ( #155, #249, ( #51 ) ) ;
#47 = DIRECTION ( 'NONE',  ( 0.000000000000000000, 0.000000000000000000, 1.000000000000000000 ) ) ;
#48 = ORIENTED_EDGE ( 'NONE', *, *, #77, .T. ) ;
#49 = CYLINDRICAL_SURFACE ( 'NONE', #63, 0.05000000000000000278 ) ;
#50 = DATE_AND_TIME ( #56, #153 ) ;
#51 = PRODUCT_DEFINITION_FORMATION_WITH_SPECIFIED_SOURCE ( 'ÈÎºÎ', '', #197, .NOT_KNOWN. ) ;
#52 = CC_DESIGN_PERSON_AND_ORGANIZATION_ASSIGNMENT ( #57, #61, ( #51 ) ) ;
#53 = ORIENTED_EDGE ( 'NONE', *, *, #22, .F. ) ;
#54 = PERSON_AND_ORGANIZATION_ROLE ( 'design_owner' ) ;
#55 = ORIENTED_EDGE ( 'NONE', *, *, #106, .T. ) ;
#56 = CALENDAR_DATE ( 2024, 31, 5 ) ;
#57 = PERSON_AND_ORGANIZATION ( #81, #4 ) ;
#58 = ORIENTED_EDGE ( 'NONE', *, *, #77, .F. ) ;
#59 = EDGE_CURVE ( 'NONE', #206, #167, #194, .T. ) ;
#60 = CIRCLE ( 'NONE', #108, 0.05000000000000000278 ) ;
#61 = PERSON_AND_ORGANIZATION_ROLE ( 'creator' ) ;
#62 = CALENDAR_DATE ( 2024, 31, 5 ) ;
#63 = AXIS2_PLACEMENT_3D ( 'NONE', #201, #102, #181 ) ;
#64 = DIRECTION ( 'NONE',  ( 0.000000000000000000, 0.000000000000000000, 1.000000000000000000 ) ) ;
#65 = ADVANCED_FACE ( 'NONE', ( #216 ), #49, .F. ) ;
#66 = CARTESIAN_POINT ( 'NONE',  ( 0.000000000000000000, 0.05000000000000000278, -0.05000000000000000278 ) ) ;
#67 = DIRECTION ( 'NONE',  ( 0.000000000000000000, -0.000000000000000000, 1.000000000000000000 ) ) ;
#68 = EDGE_CURVE ( 'NONE', #8, #147, #215, .T. ) ;
#69 = ORIENTED_EDGE ( 'NONE', *, *, #16, .F. ) ;
#70 = AXIS2_PLACEMENT_3D ( 'NONE', #144, #196, #64 ) ;
#71 = EDGE_LOOP ( 'NONE', ( #58, #91, #87, #225 ) ) ;
#72 = DIRECTION ( 'NONE',  ( 0.000000000000000000, 1.000000000000000000, 0.000000000000000000 ) ) ;
#73 = DATE_AND_TIME ( #168, #120 ) ;
#74 = CARTESIAN_POINT ( 'NONE',  ( 0.000000000000000000, 0.000000000000000000, -4.750000000000000000 ) ) ;
#75 = CIRCLE ( 'NONE', #245, 4.750000000000000000 ) ;
#76 = DATE_AND_TIME ( #62, #80 ) ;
#77 = EDGE_CURVE ( 'NONE', #107, #29, #139, .T. ) ;
#78 = COORDINATED_UNIVERSAL_TIME_OFFSET ( 8, 0, .AHEAD. ) ;
#79 = ADVANCED_BREP_SHAPE_REPRESENTATION ( '1.5.3.10-ZXO-9.5-100', ( #98, #7 ), #233 ) ;
#80 = LOCAL_TIME ( 14, 4, 19.00000000000000000, #136 ) ;
#81 = PERSON ( 'Î´Ö¸¶¨', 'Î´Ö¸¶¨', 'Î´Ö¸¶¨', ('Î´Ö¸¶¨'), ('Î´Ö¸¶¨'), ('Î´Ö¸¶¨') ) ;
#82 = DIRECTION ( 'NONE',  ( 0.000000000000000000, 0.000000000000000000, 1.000000000000000000 ) ) ;
#83 = EDGE_CURVE ( 'NONE', #145, #147, #3, .T. ) ;
#84 = CARTESIAN_POINT ( 'NONE',  ( 6.123233995736766344E-18, 0.05000000000000000278, 0.05000000000000000278 ) ) ;
#85 = VECTOR ( 'NONE', #6, 1000.000000000000000 ) ;
#86 = DIRECTION ( 'NONE',  ( 0.000000000000000000, 0.000000000000000000, 1.000000000000000000 ) ) ;
#87 = ORIENTED_EDGE ( 'NONE', *, *, #230, .T. ) ;
#88 = PRODUCT_DEFINITION ( 'Î´Öª', '', #51, #195 ) ;
#89 = FACE_OUTER_BOUND ( 'NONE', #223, .T. ) ;
#90 = APPLICATION_CONTEXT ( 'configuration controlled 3d designs of mechanical parts and assemblies' ) ;
#91 = ORIENTED_EDGE ( 'NONE', *, *, #177, .T. ) ;
#92 = CYLINDRICAL_SURFACE ( 'NONE', #179, 4.750000000000000000 ) ;
#93 = DIRECTION ( 'NONE',  ( 0.000000000000000000, 0.000000000000000000, 1.000000000000000000 ) ) ;
#94 = APPROVAL_DATE_TIME ( #50, #246 ) ;
#95 = APPLICATION_PROTOCOL_DEFINITION ( 'international standard', 'config_control_design', 1994, #90 ) ;
#96 = AXIS2_PLACEMENT_3D ( 'NONE', #162, #180, #238 ) ;
#97 = PLANE ( 'NONE',  #38 ) ;
#98 = MANIFOLD_SOLID_BREP ( 'Í¹Ì¨-À­Éì1', #138 ) ;
#99 = APPROVAL ( #204, 'Î´Ö¸¶¨' ) ;
#100 = DIRECTION ( 'NONE',  ( -0.000000000000000000, -1.000000000000000000, -0.000000000000000000 ) ) ;
#101 = APPROVAL_ROLE ( '' ) ;
#102 = DIRECTION ( 'NONE',  ( -0.000000000000000000, -1.000000000000000000, -0.000000000000000000 ) ) ;
#103 = ADVANCED_FACE ( 'NONE', ( #218 ), #44, .F. ) ;
#104 = DIRECTION ( 'NONE',  ( 0.000000000000000000, 0.000000000000000000, 1.000000000000000000 ) ) ;
#105 = DIRECTION ( 'NONE',  ( 0.000000000000000000, 1.000000000000000000, 0.000000000000000000 ) ) ;
#106 = EDGE_CURVE ( 'NONE', #29, #206, #124, .T. ) ;
#107 = VERTEX_POINT ( 'NONE', #198 ) ;
#108 = AXIS2_PLACEMENT_3D ( 'NONE', #169, #243, #93 ) ;
#109 = DIRECTION ( 'NONE',  ( -0.000000000000000000, -1.000000000000000000, -0.000000000000000000 ) ) ;
#110 = ORIENTED_EDGE ( 'NONE', *, *, #68, .F. ) ;
#111 = CARTESIAN_POINT ( 'NONE',  ( 0.000000000000000000, 0.05000000000000000278, 0.000000000000000000 ) ) ;
#112 = PERSON_AND_ORGANIZATION_ROLE ( 'creator' ) ;
#113 = DIRECTION ( 'NONE',  ( -0.000000000000000000, -1.000000000000000000, -0.000000000000000000 ) ) ;
#114 = ORIENTED_EDGE ( 'NONE', *, *, #68, .T. ) ;
#115 = CARTESIAN_POINT ( 'NONE',  ( 5.817072295949927426E-16, 0.05000000000000000278, 4.750000000000000000 ) ) ;
#116 = EDGE_CURVE ( 'NONE', #147, #8, #232, .T. ) ;
#117 = AXIS2_PLACEMENT_3D ( 'NONE', #24, #9, #104 ) ;
#118 = EDGE_LOOP ( 'NONE', ( #151, #53 ) ) ;
#119 = PRODUCT_RELATED_PRODUCT_CATEGORY ( 'detail', '', ( #197 ) ) ;
#120 = LOCAL_TIME ( 14, 4, 19.00000000000000000, #13 ) ;
#121 = CARTESIAN_POINT ( 'NONE',  ( 0.000000000000000000, 0.05000000000000000278, -4.750000000000000000 ) ) ;
#122 = ADVANCED_FACE ( 'NONE', ( #89 ), #163, .T. ) ;
#123 = VECTOR ( 'NONE', #100, 1000.000000000000000 ) ;
#124 = LINE ( 'NONE', #199, #85 ) ;
#125 = DIRECTION ( 'NONE',  ( 0.000000000000000000, 1.000000000000000000, 0.000000000000000000 ) ) ;
#126 = ORIENTED_EDGE ( 'NONE', *, *, #42, .T. ) ;
#127 = DIRECTION ( 'NONE',  ( 0.000000000000000000, 0.000000000000000000, 1.000000000000000000 ) ) ;
#128 = AXIS2_PLACEMENT_3D ( 'NONE', #146, #72, #152 ) ;
#129 = LINE ( 'NONE', #115, #186 ) ;
#130 = EDGE_LOOP ( 'NONE', ( #229, #183, #110, #69 ) ) ;
#131 = DIRECTION ( 'NONE',  ( 1.000000000000000000, 0.000000000000000000, 0.000000000000000000 ) ) ;
#132 = PERSON_AND_ORGANIZATION ( #81, #4 ) ;
#133 = APPROVAL_DATE_TIME ( #73, #99 ) ;
#134 = VECTOR ( 'NONE', #235, 1000.000000000000000 ) ;
#135 = ADVANCED_FACE ( 'NONE', ( #237 ), #92, .T. ) ;
#136 = COORDINATED_UNIVERSAL_TIME_OFFSET ( 8, 0, .AHEAD. ) ;
#137 = UNCERTAINTY_MEASURE_WITH_UNIT (LENGTH_MEASURE( 1.000000000000000082E-05 ), #221, 'distance_accuracy_value', 'NONE');
#138 = CLOSED_SHELL ( 'NONE', ( #103, #135, #31, #19, #122, #65 ) ) ;
#139 = CIRCLE ( 'NONE', #18, 4.750000000000000000 ) ;
#140 = EDGE_CURVE ( 'NONE', #34, #145, #60, .T. ) ;
#141 = CARTESIAN_POINT ( 'NONE',  ( 0.000000000000000000, 0.05000000000000000278, 0.000000000000000000 ) ) ;
#142 = DIRECTION ( 'NONE',  ( 0.000000000000000000, 1.000000000000000000, 0.000000000000000000 ) ) ;
#143 = APPROVAL_PERSON_ORGANIZATION ( #132, #99, #227 ) ;
#144 = CARTESIAN_POINT ( 'NONE',  ( 0.000000000000000000, 0.000000000000000000, 0.000000000000000000 ) ) ;
#145 = VERTEX_POINT ( 'NONE', #226 ) ;
#146 = CARTESIAN_POINT ( 'NONE',  ( 0.000000000000000000, 0.000000000000000000, 0.000000000000000000 ) ) ;
#147 = VERTEX_POINT ( 'NONE', #30 ) ;
#148 = LOCAL_TIME ( 14, 4, 19.00000000000000000, #78 ) ;
#149 = COORDINATED_UNIVERSAL_TIME_OFFSET ( 8, 0, .AHEAD. ) ;
#150 = ORIENTED_EDGE ( 'NONE', *, *, #22, .T. ) ;
#151 = ORIENTED_EDGE ( 'NONE', *, *, #140, .F. ) ;
#152 = DIRECTION ( 'NONE',  ( 0.000000000000000000, 0.000000000000000000, 1.000000000000000000 ) ) ;
#153 = LOCAL_TIME ( 14, 4, 19.00000000000000000, #247 ) ;
#154 = APPROVAL_STATUS ( 'not_yet_approved' ) ;
#155 = PERSON_AND_ORGANIZATION ( #81, #4 ) ;
#156 = CC_DESIGN_APPROVAL ( #212, ( #45 ) ) ;
#157 = LOCAL_TIME ( 14, 4, 19.00000000000000000, #149 ) ;
#158 = CARTESIAN_POINT ( 'NONE',  ( 0.000000000000000000, 0.000000000000000000, -0.05000000000000000278 ) ) ;
#159 = APPROVAL_PERSON_ORGANIZATION ( #32, #246, #171 ) ;
#160 = DIRECTION ( 'NONE',  ( 0.000000000000000000, 1.000000000000000000, 0.000000000000000000 ) ) ;
#161 = CARTESIAN_POINT ( 'NONE',  ( 0.000000000000000000, 0.000000000000000000, 0.000000000000000000 ) ) ;
#162 = CARTESIAN_POINT ( 'NONE',  ( 0.000000000000000000, 0.05000000000000000278, 0.000000000000000000 ) ) ;
#163 = CYLINDRICAL_SURFACE ( 'NONE', #96, 4.750000000000000000 ) ;
#164 = DIRECTION ( 'NONE',  ( 0.000000000000000000, 0.000000000000000000, 1.000000000000000000 ) ) ;
#165 = ORIENTED_EDGE ( 'NONE', *, *, #59, .F. ) ;
#166 = DATE_TIME_ROLE ( 'creation_date' ) ;
#167 = VERTEX_POINT ( 'NONE', #242 ) ;
#168 = CALENDAR_DATE ( 2024, 31, 5 ) ;
#169 = CARTESIAN_POINT ( 'NONE',  ( 0.000000000000000000, 0.05000000000000000278, 0.000000000000000000 ) ) ;
#170 = CARTESIAN_POINT ( 'NONE',  ( 0.000000000000000000, 0.000000000000000000, 0.000000000000000000 ) ) ;
#171 = APPROVAL_ROLE ( '' ) ;
#172 = AXIS2_PLACEMENT_3D ( 'NONE', #27, #109, #236 ) ;
#173 = DIRECTION ( 'NONE',  ( 0.000000000000000000, 1.000000000000000000, 0.000000000000000000 ) ) ;
#174 = DATE_TIME_ROLE ( 'classification_date' ) ;
#175 = CC_DESIGN_PERSON_AND_ORGANIZATION_ASSIGNMENT ( #33, #112, ( #88 ) ) ;
#176 = CALENDAR_DATE ( 2024, 31, 5 ) ;
#177 = EDGE_CURVE ( 'NONE', #107, #167, #129, .T. ) ;
#178 = DIRECTION ( 'NONE',  ( 0.000000000000000000, 1.000000000000000000, 0.000000000000000000 ) ) ;
#179 = AXIS2_PLACEMENT_3D ( 'NONE', #111, #113, #240 ) ;
#180 = DIRECTION ( 'NONE',  ( -0.000000000000000000, -1.000000000000000000, -0.000000000000000000 ) ) ;
#181 = DIRECTION ( 'NONE',  ( 0.000000000000000000, 0.000000000000000000, -1.000000000000000000 ) ) ;
#182 = AXIS2_PLACEMENT_3D ( 'NONE', #141, #105, #67 ) ;
#183 = ORIENTED_EDGE ( 'NONE', *, *, #83, .T. ) ;
#184 = CC_DESIGN_DATE_AND_TIME_ASSIGNMENT ( #10, #166, ( #88 ) ) ;
#185 = CALENDAR_DATE ( 2024, 31, 5 ) ;
#186 = VECTOR ( 'NONE', #244, 1000.000000000000000 ) ;
#187 = ORIENTED_EDGE ( 'NONE', *, *, #116, .F. ) ;
#188 =( NAMED_UNIT ( * ) SI_UNIT ( $, .STERADIAN. ) SOLID_ANGLE_UNIT ( ) );
#189 = APPLICATION_PROTOCOL_DEFINITION ( 'international standard', 'config_control_design', 1994, #1 ) ;
#190 = SECURITY_CLASSIFICATION_LEVEL ( 'unclassified' ) ;
#191 = CC_DESIGN_APPROVAL ( #99, ( #51 ) ) ;
#192 = PERSON_AND_ORGANIZATION_ROLE ( 'classification_officer' ) ;
#193 = SHAPE_DEFINITION_REPRESENTATION ( #21, #79 ) ;
#194 = CIRCLE ( 'NONE', #70, 4.750000000000000000 ) ;
#195 = DESIGN_CONTEXT ( 'detailed design', #90, 'design' ) ;
#196 = DIRECTION ( 'NONE',  ( 0.000000000000000000, 1.000000000000000000, 0.000000000000000000 ) ) ;
#197 = PRODUCT ( '1.5.3.10-ZXO-9.5-100', '1.5.3.10-ZXO-9.5-100', '', ( #209 ) ) ;
#198 = CARTESIAN_POINT ( 'NONE',  ( 5.817072295949927426E-16, 0.05000000000000000278, 4.750000000000000000 ) ) ;
#199 = CARTESIAN_POINT ( 'NONE',  ( 0.000000000000000000, 0.05000000000000000278, -4.750000000000000000 ) ) ;
#200 = ORIENTED_EDGE ( 'NONE', *, *, #59, .T. ) ;
#201 = CARTESIAN_POINT ( 'NONE',  ( 0.000000000000000000, 0.05000000000000000278, 0.000000000000000000 ) ) ;
#202 = AXIS2_PLACEMENT_3D ( 'NONE', #43, #160, #127 ) ;
#203 = ORIENTED_EDGE ( 'NONE', *, *, #177, .F. ) ;
#204 = APPROVAL_STATUS ( 'not_yet_approved' ) ;
#205 = AXIS2_PLACEMENT_3D ( 'NONE', #161, #125, #82 ) ;
#206 = VERTEX_POINT ( 'NONE', #74 ) ;
#207 = APPROVAL_STATUS ( 'not_yet_approved' ) ;
#208 = ORIENTED_EDGE ( 'NONE', *, *, #116, .T. ) ;
#209 = MECHANICAL_CONTEXT ( 'NONE', #1, 'mechanical' ) ;
#210 = ORIENTED_EDGE ( 'NONE', *, *, #16, .T. ) ;
#211 = DATE_AND_TIME ( #176, #148 ) ;
#212 = APPROVAL ( #154, 'Î´Ö¸¶¨' ) ;
#213 = CIRCLE ( 'NONE', #128, 4.750000000000000000 ) ;
#214 = LINE ( 'NONE', #17, #123 ) ;
#215 = CIRCLE ( 'NONE', #205, 0.05000000000000000278 ) ;
#216 = FACE_OUTER_BOUND ( 'NONE', #14, .T. ) ;
#217 = CC_DESIGN_DATE_AND_TIME_ASSIGNMENT ( #76, #174, ( #45 ) ) ;
#218 = FACE_OUTER_BOUND ( 'NONE', #130, .T. ) ;
#219 = CARTESIAN_POINT ( 'NONE',  ( 0.000000000000000000, 0.05000000000000000278, 0.000000000000000000 ) ) ;
#220 = EDGE_LOOP ( 'NONE', ( #165, #36 ) ) ;
#221 =( LENGTH_UNIT ( ) NAMED_UNIT ( * ) SI_UNIT ( .MILLI., .METRE. ) );
#222 = APPROVAL_PERSON_ORGANIZATION ( #20, #212, #101 ) ;
#223 = EDGE_LOOP ( 'NONE', ( #203, #239, #55, #200 ) ) ;
#224 =( NAMED_UNIT ( * ) PLANE_ANGLE_UNIT ( ) SI_UNIT ( $, .RADIAN. ) );
#225 = ORIENTED_EDGE ( 'NONE', *, *, #106, .F. ) ;
#226 = CARTESIAN_POINT ( 'NONE',  ( 6.123233995736766344E-18, 0.05000000000000000278, 0.05000000000000000278 ) ) ;
#227 = APPROVAL_ROLE ( '' ) ;
#228 = FACE_BOUND ( 'NONE', #12, .T. ) ;
#229 = ORIENTED_EDGE ( 'NONE', *, *, #140, .T. ) ;
#230 = EDGE_CURVE ( 'NONE', #167, #206, #213, .T. ) ;
#231 = DIRECTION ( 'NONE',  ( 0.000000000000000000, -0.000000000000000000, 1.000000000000000000 ) ) ;
#232 = CIRCLE ( 'NONE', #117, 0.05000000000000000278 ) ;
#233 =( GEOMETRIC_REPRESENTATION_CONTEXT ( 3 ) GLOBAL_UNCERTAINTY_ASSIGNED_CONTEXT ( ( #137 ) ) GLOBAL_UNIT_ASSIGNED_CONTEXT ( ( #221, #224, #188 ) ) REPRESENTATION_CONTEXT ( 'NONE', 'WORKASPACE' ) );
#234 = FACE_BOUND ( 'NONE', #118, .T. ) ;
#235 = DIRECTION ( 'NONE',  ( -0.000000000000000000, -1.000000000000000000, -0.000000000000000000 ) ) ;
#236 = DIRECTION ( 'NONE',  ( 0.000000000000000000, 0.000000000000000000, -1.000000000000000000 ) ) ;
#237 = FACE_OUTER_BOUND ( 'NONE', #71, .T. ) ;
#238 = DIRECTION ( 'NONE',  ( 0.000000000000000000, 0.000000000000000000, -1.000000000000000000 ) ) ;
#239 = ORIENTED_EDGE ( 'NONE', *, *, #42, .F. ) ;
#240 = DIRECTION ( 'NONE',  ( 0.000000000000000000, 0.000000000000000000, -1.000000000000000000 ) ) ;
#241 = CC_DESIGN_SECURITY_CLASSIFICATION ( #45, ( #51 ) ) ;
#242 = CARTESIAN_POINT ( 'NONE',  ( 5.817072295949927426E-16, 0.000000000000000000, 4.750000000000000000 ) ) ;
#243 = DIRECTION ( 'NONE',  ( 0.000000000000000000, 1.000000000000000000, 0.000000000000000000 ) ) ;
#244 = DIRECTION ( 'NONE',  ( -0.000000000000000000, -1.000000000000000000, -0.000000000000000000 ) ) ;
#245 = AXIS2_PLACEMENT_3D ( 'NONE', #219, #142, #47 ) ;
#246 = APPROVAL ( #207, 'Î´Ö¸¶¨' ) ;
#247 = COORDINATED_UNIVERSAL_TIME_OFFSET ( 8, 0, .AHEAD. ) ;
#248 = FACE_OUTER_BOUND ( 'NONE', #220, .T. ) ;
#249 = PERSON_AND_ORGANIZATION_ROLE ( 'design_supplier' ) ;
ENDSEC;
END-ISO-10303-21;
