ISO-10303-21;
HEADER;
FILE_DESCRIPTION (( 'STEP AP214' ),
    '1' );
FILE_NAME ('503006.STEP',
    '2019-09-04T06:06:45',
    ( '' ),
    ( '' ),
    'SwSTEP 2.0',
    'SolidWorks 2016',
    '' );
FILE_SCHEMA (( 'AUTOMOTIVE_DESIGN' ));
ENDSEC;

DATA;
#1 = DIRECTION ( 'NONE',  ( 0.0000000000000000000, 0.0000000000000000000, 1.000000000000000000 ) ) ;
#2 = MECHANICAL_DESIGN_GEOMETRIC_PRESENTATION_REPRESENTATION (  '', ( #71 ), #206 ) ;
#3 = ORIENTED_EDGE ( 'NONE', *, *, #237, .T. ) ;
#4 =( LENGTH_UNIT ( ) NAMED_UNIT ( * ) SI_UNIT ( .MILLI., .METRE. ) );
#5 = PRODUCT_CONTEXT ( 'NONE', #151, 'mechanical' ) ;
#6 = VERTEX_POINT ( 'NONE', #204 ) ;
#7 = DIRECTION ( 'NONE',  ( -0.0000000000000000000, 1.000000000000000000, -0.0000000000000000000 ) ) ;
#8 = EDGE_CURVE ( 'NONE', #69, #156, #38, .T. ) ;
#9 = CYLINDRICAL_SURFACE ( 'NONE', #65, 25.50000000000000700 ) ;
#10 = ADVANCED_BREP_SHAPE_REPRESENTATION ( '503006', ( #73, #78 ), #142 ) ;
#11 = CARTESIAN_POINT ( 'NONE',  ( 0.0000000000000000000, -2.775557561562891400E-014, 28.00000000000002100 ) ) ;
#12 = ORIENTED_EDGE ( 'NONE', *, *, #8, .T. ) ;
#13 = LINE ( 'NONE', #187, #229 ) ;
#14 = FACE_OUTER_BOUND ( 'NONE', #155, .T. ) ;
#15 = DIRECTION ( 'NONE',  ( -0.0000000000000000000, 1.000000000000000000, -0.0000000000000000000 ) ) ;
#16 = DIRECTION ( 'NONE',  ( -0.0000000000000000000, 1.000000000000000000, -0.0000000000000000000 ) ) ;
#17 = PRODUCT_DEFINITION_FORMATION_WITH_SPECIFIED_SOURCE ( 'ÈÎºÎ', '', #153, .NOT_KNOWN. ) ;
#18 = DIRECTION ( 'NONE',  ( -0.0000000000000000000, 1.000000000000000000, -0.0000000000000000000 ) ) ;
#19 = SURFACE_STYLE_FILL_AREA ( #52 ) ;
#20 = CIRCLE ( 'NONE', #215, 25.50000000000000400 ) ;
#21 = DIRECTION ( 'NONE',  ( 0.0000000000000000000, 0.0000000000000000000, 1.000000000000000000 ) ) ;
#22 = CARTESIAN_POINT ( 'NONE',  ( 0.0000000000000000000, 0.0000000000000000000, 0.0000000000000000000 ) ) ;
#23 = CIRCLE ( 'NONE', #166, 28.00000000000002100 ) ;
#24 = ADVANCED_FACE ( 'NONE', ( #198 ), #216, .T. ) ;
#25 =( NAMED_UNIT ( * ) PLANE_ANGLE_UNIT ( ) SI_UNIT ( $, .RADIAN. ) );
#26 = DIRECTION ( 'NONE',  ( 0.0000000000000000000, 0.0000000000000000000, 1.000000000000000000 ) ) ;
#27 = LINE ( 'NONE', #32, #174 ) ;
#28 = PRODUCT_RELATED_PRODUCT_CATEGORY ( 'part', '', ( #153 ) ) ;
#29 = PRESENTATION_STYLE_ASSIGNMENT (( #223 ) ) ;
#30 = EDGE_CURVE ( 'NONE', #220, #6, #150, .T. ) ;
#31 = EDGE_LOOP ( 'NONE', ( #106, #118, #188, #132 ) ) ;
#32 = CARTESIAN_POINT ( 'NONE',  ( 3.429011037612591600E-015, 161.3761669434274500, -28.00000000000002100 ) ) ;
#33 = CIRCLE ( 'NONE', #74, 25.50000000000000400 ) ;
#34 = DIRECTION ( 'NONE',  ( 0.0000000000000000000, 0.0000000000000000000, 1.000000000000000000 ) ) ;
#35 = DIRECTION ( 'NONE',  ( 0.0000000000000000000, 0.0000000000000000000, 1.000000000000000000 ) ) ;
#36 = STYLED_ITEM ( 'NONE', ( #233 ), #44 ) ;
#37 = CARTESIAN_POINT ( 'NONE',  ( 25.50000000000000400, 76.19999999999998900, 0.0000000000000000000 ) ) ;
#38 = CIRCLE ( 'NONE', #149, 25.50000000000001400 ) ;
#39 = SURFACE_STYLE_USAGE ( .BOTH. , #84 ) ;
#40 = CARTESIAN_POINT ( 'NONE',  ( 25.50000000000001400, -1.390324872067691800E-014, 0.0000000000000000000 ) ) ;
#41 = DIRECTION ( 'NONE',  ( 0.0000000000000000000, 0.0000000000000000000, 1.000000000000000000 ) ) ;
#42 = VERTEX_POINT ( 'NONE', #135 ) ;
#43 = PRESENTATION_LAYER_ASSIGNMENT (  '', '', ( #36 ) ) ;
#44 = ADVANCED_FACE ( 'NONE', ( #141 ), #173, .F. ) ;
#45 = PRODUCT_DEFINITION_SHAPE ( 'NONE', 'NONE',  #91 ) ;
#46 = EDGE_LOOP ( 'NONE', ( #183, #197 ) ) ;
#47 = AXIS2_PLACEMENT_3D ( 'NONE', #54, #122, #35 ) ;
#48 = ORIENTED_EDGE ( 'NONE', *, *, #217, .T. ) ;
#49 =( GEOMETRIC_REPRESENTATION_CONTEXT ( 3 ) GLOBAL_UNCERTAINTY_ASSIGNED_CONTEXT ( ( #219 ) ) GLOBAL_UNIT_ASSIGNED_CONTEXT ( ( #172, #238, #53 ) ) REPRESENTATION_CONTEXT ( 'NONE', 'WORKASPACE' ) );
#50 = CLOSED_SHELL ( 'NONE', ( #44, #24, #210, #86, #232, #67 ) ) ;
#51 = COLOUR_RGB ( '',1.000000000000000000, 1.000000000000000000, 1.000000000000000000 ) ;
#52 = FILL_AREA_STYLE ('',( #120 ) ) ;
#53 =( NAMED_UNIT ( * ) SI_UNIT ( $, .STERADIAN. ) SOLID_ANGLE_UNIT ( ) );
#54 = CARTESIAN_POINT ( 'NONE',  ( 0.0000000000000000000, 161.3761669434274500, 0.0000000000000000000 ) ) ;
#55 = UNCERTAINTY_MEASURE_WITH_UNIT (LENGTH_MEASURE( 1.000000000000000100E-005 ), #4, 'distance_accuracy_value', 'NONE');
#56 = VERTEX_POINT ( 'NONE', #11 ) ;
#57 = DIRECTION ( 'NONE',  ( -0.0000000000000000000, 1.000000000000000000, -0.0000000000000000000 ) ) ;
#58 = DIRECTION ( 'NONE',  ( -0.0000000000000000000, 1.000000000000000000, 0.0000000000000000000 ) ) ;
#59 =( GEOMETRIC_REPRESENTATION_CONTEXT ( 3 ) GLOBAL_UNCERTAINTY_ASSIGNED_CONTEXT ( ( #211 ) ) GLOBAL_UNIT_ASSIGNED_CONTEXT ( ( #231, #192, #193 ) ) REPRESENTATION_CONTEXT ( 'NONE', 'WORKASPACE' ) );
#60 = CARTESIAN_POINT ( 'NONE',  ( 0.0000000000000000000, 76.19999999999998900, 0.0000000000000000000 ) ) ;
#61 = VERTEX_POINT ( 'NONE', #199 ) ;
#62 = CARTESIAN_POINT ( 'NONE',  ( 0.0000000000000000000, 161.3761669434274500, 28.00000000000002100 ) ) ;
#63 = COLOUR_RGB ( '',1.000000000000000000, 1.000000000000000000, 1.000000000000000000 ) ;
#64 = ORIENTED_EDGE ( 'NONE', *, *, #94, .T. ) ;
#65 = AXIS2_PLACEMENT_3D ( 'NONE', #171, #76, #143 ) ;
#66 = SURFACE_SIDE_STYLE ('',( #168 ) ) ;
#67 = ADVANCED_FACE ( 'NONE', ( #14 ), #9, .F. ) ;
#68 = CARTESIAN_POINT ( 'NONE',  ( 0.0000000000000000000, -2.775557561562891400E-014, 0.0000000000000000000 ) ) ;
#69 = VERTEX_POINT ( 'NONE', #230 ) ;
#70 = COLOUR_RGB ( '',1.000000000000000000, 1.000000000000000000, 1.000000000000000000 ) ;
#71 = STYLED_ITEM ( 'NONE', ( #29 ), #67 ) ;
#72 = EDGE_CURVE ( 'NONE', #176, #220, #27, .T. ) ;
#73 = MANIFOLD_SOLID_BREP ( 'Ðý×ª1', #50 ) ;
#74 = AXIS2_PLACEMENT_3D ( 'NONE', #82, #102, #101 ) ;
#75 = ORIENTED_EDGE ( 'NONE', *, *, #217, .F. ) ;
#76 = DIRECTION ( 'NONE',  ( -0.0000000000000000000, 1.000000000000000000, -0.0000000000000000000 ) ) ;
#77 = SURFACE_STYLE_FILL_AREA ( #117 ) ;
#78 = AXIS2_PLACEMENT_3D ( 'NONE', #22, #26, #109 ) ;
#79 = CARTESIAN_POINT ( 'NONE',  ( 0.0000000000000000000, -2.775557561562891400E-014, 0.0000000000000000000 ) ) ;
#80 = FILL_AREA_STYLE ('',( #125 ) ) ;
#81 =( NAMED_UNIT ( * ) SI_UNIT ( $, .STERADIAN. ) SOLID_ANGLE_UNIT ( ) );
#82 = CARTESIAN_POINT ( 'NONE',  ( 0.0000000000000000000, 76.19999999999998900, 0.0000000000000000000 ) ) ;
#83 = MECHANICAL_DESIGN_GEOMETRIC_PRESENTATION_REPRESENTATION (  '', ( #222 ), #103 ) ;
#84 = SURFACE_SIDE_STYLE ('',( #93 ) ) ;
#85 = AXIS2_PLACEMENT_3D ( 'NONE', #68, #7, #196 ) ;
#86 = ADVANCED_FACE ( 'NONE', ( #88 ), #133, .T. ) ;
#87 = UNCERTAINTY_MEASURE_WITH_UNIT (LENGTH_MEASURE( 1.000000000000000100E-005 ), #119, 'distance_accuracy_value', 'NONE');
#88 = FACE_OUTER_BOUND ( 'NONE', #31, .T. ) ;
#89 = MECHANICAL_DESIGN_GEOMETRIC_PRESENTATION_REPRESENTATION (  '', ( #202 ), #59 ) ;
#90 = ORIENTED_EDGE ( 'NONE', *, *, #116, .F. ) ;
#91 = PRODUCT_DEFINITION ( 'Î´Öª', '', #17, #180 ) ;
#92 = ORIENTED_EDGE ( 'NONE', *, *, #161, .F. ) ;
#93 = SURFACE_STYLE_FILL_AREA ( #80 ) ;
#94 = EDGE_CURVE ( 'NONE', #42, #61, #33, .T. ) ;
#95 = SURFACE_SIDE_STYLE ('',( #77 ) ) ;
#96 = AXIS2_PLACEMENT_3D ( 'NONE', #60, #205, #226 ) ;
#97 = PRESENTATION_STYLE_ASSIGNMENT (( #130 ) ) ;
#98 = PRESENTATION_LAYER_ASSIGNMENT (  '', '', ( #222 ) ) ;
#99 = CARTESIAN_POINT ( 'NONE',  ( 3.122849337825752600E-015, -2.775557561562891400E-014, -25.50000000000001400 ) ) ;
#100 = EDGE_LOOP ( 'NONE', ( #179, #152 ) ) ;
#101 = DIRECTION ( 'NONE',  ( 0.0000000000000000000, 0.0000000000000000000, 1.000000000000000000 ) ) ;
#102 = DIRECTION ( 'NONE',  ( -0.0000000000000000000, 1.000000000000000000, -0.0000000000000000000 ) ) ;
#103 =( GEOMETRIC_REPRESENTATION_CONTEXT ( 3 ) GLOBAL_UNCERTAINTY_ASSIGNED_CONTEXT ( ( #104 ) ) GLOBAL_UNIT_ASSIGNED_CONTEXT ( ( #189, #178, #126 ) ) REPRESENTATION_CONTEXT ( 'NONE', 'WORKASPACE' ) );
#104 = UNCERTAINTY_MEASURE_WITH_UNIT (LENGTH_MEASURE( 1.000000000000000100E-005 ), #189, 'distance_accuracy_value', 'NONE');
#105 = DIRECTION ( 'NONE',  ( -0.0000000000000000000, 1.000000000000000000, -0.0000000000000000000 ) ) ;
#106 = ORIENTED_EDGE ( 'NONE', *, *, #72, .F. ) ;
#107 = APPLICATION_PROTOCOL_DEFINITION ( 'draft international standard', 'automotive_design', 1998, #148 ) ;
#108 = APPLICATION_PROTOCOL_DEFINITION ( 'draft international standard', 'automotive_design', 1998, #151 ) ;
#109 = DIRECTION ( 'NONE',  ( 1.000000000000000000, 0.0000000000000000000, 0.0000000000000000000 ) ) ;
#110 = EDGE_CURVE ( 'NONE', #56, #6, #170, .T. ) ;
#111 = DIRECTION ( 'NONE',  ( 0.0000000000000000000, -1.000000000000000000, 0.0000000000000000000 ) ) ;
#112 = ORIENTED_EDGE ( 'NONE', *, *, #161, .T. ) ;
#113 = FACE_BOUND ( 'NONE', #46, .T. ) ;
#114 = AXIS2_PLACEMENT_3D ( 'NONE', #175, #57, #214 ) ;
#115 = ORIENTED_EDGE ( 'NONE', *, *, #124, .F. ) ;
#116 = EDGE_CURVE ( 'NONE', #156, #42, #13, .T. ) ;
#117 = FILL_AREA_STYLE ('',( #221 ) ) ;
#118 = ORIENTED_EDGE ( 'NONE', *, *, #134, .T. ) ;
#119 =( LENGTH_UNIT ( ) NAMED_UNIT ( * ) SI_UNIT ( .MILLI., .METRE. ) );
#120 = FILL_AREA_STYLE_COLOUR ( '', #51 ) ;
#121 = DIRECTION ( 'NONE',  ( -0.0000000000000000000, 1.000000000000000000, -0.0000000000000000000 ) ) ;
#122 = DIRECTION ( 'NONE',  ( -0.0000000000000000000, 1.000000000000000000, -0.0000000000000000000 ) ) ;
#123 = VECTOR ( 'NONE', #18, 1000.000000000000000 ) ;
#124 = EDGE_CURVE ( 'NONE', #6, #220, #137, .T. ) ;
#125 = FILL_AREA_STYLE_COLOUR ( '', #63 ) ;
#126 =( NAMED_UNIT ( * ) SI_UNIT ( $, .STERADIAN. ) SOLID_ANGLE_UNIT ( ) );
#127 = CARTESIAN_POINT ( 'NONE',  ( 3.429011037612591600E-015, 76.19999999999998900, -28.00000000000002100 ) ) ;
#128 = DIRECTION ( 'NONE',  ( 0.0000000000000000000, -0.0000000000000000000, -1.000000000000000000 ) ) ;
#129 = VECTOR ( 'NONE', #244, 1000.000000000000000 ) ;
#130 = SURFACE_STYLE_USAGE ( .BOTH. , #66 ) ;
#131 = AXIS2_PLACEMENT_3D ( 'NONE', #138, #240, #34 ) ;
#132 = ORIENTED_EDGE ( 'NONE', *, *, #30, .F. ) ;
#133 = CYLINDRICAL_SURFACE ( 'NONE', #227, 28.00000000000002100 ) ;
#134 = EDGE_CURVE ( 'NONE', #176, #56, #23, .T. ) ;
#135 = CARTESIAN_POINT ( 'NONE',  ( 3.122849337825751400E-015, 76.19999999999998900, -25.50000000000000400 ) ) ;
#136 = CARTESIAN_POINT ( 'NONE',  ( 0.0000000000000000000, 76.19999999999998900, 0.0000000000000000000 ) ) ;
#137 = CIRCLE ( 'NONE', #96, 28.00000000000002100 ) ;
#138 = CARTESIAN_POINT ( 'NONE',  ( 0.0000000000000000000, 161.3761669434274500, 0.0000000000000000000 ) ) ;
#139 = FILL_AREA_STYLE_COLOUR ( '', #70 ) ;
#140 = CARTESIAN_POINT ( 'NONE',  ( 3.429011037612591600E-015, -2.775557561562891400E-014, -28.00000000000002100 ) ) ;
#141 = FACE_OUTER_BOUND ( 'NONE', #190, .T. ) ;
#142 =( GEOMETRIC_REPRESENTATION_CONTEXT ( 3 ) GLOBAL_UNCERTAINTY_ASSIGNED_CONTEXT ( ( #55 ) ) GLOBAL_UNIT_ASSIGNED_CONTEXT ( ( #4, #25, #147 ) ) REPRESENTATION_CONTEXT ( 'NONE', 'WORKASPACE' ) );
#143 = DIRECTION ( 'NONE',  ( 0.0000000000000000000, 0.0000000000000000000, 1.000000000000000000 ) ) ;
#144 = PLANE ( 'NONE',  #234 ) ;
#145 = ORIENTED_EDGE ( 'NONE', *, *, #169, .T. ) ;
#146 = PRESENTATION_STYLE_ASSIGNMENT (( #39 ) ) ;
#147 =( NAMED_UNIT ( * ) SI_UNIT ( $, .STERADIAN. ) SOLID_ANGLE_UNIT ( ) );
#148 = APPLICATION_CONTEXT ( 'automotive_design' ) ;
#149 = AXIS2_PLACEMENT_3D ( 'NONE', #236, #121, #224 ) ;
#150 = CIRCLE ( 'NONE', #194, 28.00000000000002100 ) ;
#151 = APPLICATION_CONTEXT ( 'automotive_design' ) ;
#152 = ORIENTED_EDGE ( 'NONE', *, *, #30, .T. ) ;
#153 = PRODUCT ( '503006', '503006', '', ( #5 ) ) ;
#154 = MECHANICAL_DESIGN_GEOMETRIC_PRESENTATION_REPRESENTATION (  '', ( #36 ), #49 ) ;
#155 = EDGE_LOOP ( 'NONE', ( #90, #163, #112, #145 ) ) ;
#156 = VERTEX_POINT ( 'NONE', #99 ) ;
#157 = SURFACE_STYLE_USAGE ( .BOTH. , #186 ) ;
#158 = CARTESIAN_POINT ( 'NONE',  ( 0.0000000000000000000, 161.3761669434274500, 25.50000000000000700 ) ) ;
#159 = PRESENTATION_LAYER_ASSIGNMENT (  '', '', ( #202 ) ) ;
#160 = CARTESIAN_POINT ( 'NONE',  ( 0.0000000000000000000, 161.3761669434274500, 0.0000000000000000000 ) ) ;
#161 = EDGE_CURVE ( 'NONE', #69, #61, #208, .T. ) ;
#162 = DIRECTION ( 'NONE',  ( 0.0000000000000000000, 0.0000000000000000000, 1.000000000000000000 ) ) ;
#163 = ORIENTED_EDGE ( 'NONE', *, *, #8, .F. ) ;
#164 = PRESENTATION_LAYER_ASSIGNMENT (  '', '', ( #71 ) ) ;
#165 = ORIENTED_EDGE ( 'NONE', *, *, #237, .F. ) ;
#166 = AXIS2_PLACEMENT_3D ( 'NONE', #79, #16, #1 ) ;
#167 = ORIENTED_EDGE ( 'NONE', *, *, #110, .F. ) ;
#168 = SURFACE_STYLE_FILL_AREA ( #213 ) ;
#169 = EDGE_CURVE ( 'NONE', #61, #42, #20, .T. ) ;
#170 = LINE ( 'NONE', #62, #123 ) ;
#171 = CARTESIAN_POINT ( 'NONE',  ( 0.0000000000000000000, 161.3761669434274500, 0.0000000000000000000 ) ) ;
#172 =( LENGTH_UNIT ( ) NAMED_UNIT ( * ) SI_UNIT ( .MILLI., .METRE. ) );
#173 = CYLINDRICAL_SURFACE ( 'NONE', #47, 25.50000000000000700 ) ;
#174 = VECTOR ( 'NONE', #228, 1000.000000000000000 ) ;
#175 = CARTESIAN_POINT ( 'NONE',  ( 0.0000000000000000000, -2.775557561562891400E-014, 0.0000000000000000000 ) ) ;
#176 = VERTEX_POINT ( 'NONE', #140 ) ;
#177 = AXIS2_PLACEMENT_3D ( 'NONE', #37, #111, #128 ) ;
#178 =( NAMED_UNIT ( * ) PLANE_ANGLE_UNIT ( ) SI_UNIT ( $, .RADIAN. ) );
#179 = ORIENTED_EDGE ( 'NONE', *, *, #124, .T. ) ;
#180 = PRODUCT_DEFINITION_CONTEXT ( 'detailed design', #148, 'design' ) ;
#181 = CIRCLE ( 'NONE', #114, 28.00000000000002100 ) ;
#182 = COLOUR_RGB ( '',1.000000000000000000, 1.000000000000000000, 1.000000000000000000 ) ;
#183 = ORIENTED_EDGE ( 'NONE', *, *, #169, .F. ) ;
#184 = CIRCLE ( 'NONE', #85, 25.50000000000001400 ) ;
#185 = SHAPE_DEFINITION_REPRESENTATION ( #45, #10 ) ;
#186 = SURFACE_SIDE_STYLE ('',( #19 ) ) ;
#187 = CARTESIAN_POINT ( 'NONE',  ( 3.122849337825751800E-015, 161.3761669434274500, -25.50000000000000700 ) ) ;
#188 = ORIENTED_EDGE ( 'NONE', *, *, #110, .T. ) ;
#189 =( LENGTH_UNIT ( ) NAMED_UNIT ( * ) SI_UNIT ( .MILLI., .METRE. ) );
#190 = EDGE_LOOP ( 'NONE', ( #165, #235, #64, #92 ) ) ;
#191 = DIRECTION ( 'NONE',  ( -0.0000000000000000000, 1.000000000000000000, -0.0000000000000000000 ) ) ;
#192 =( NAMED_UNIT ( * ) PLANE_ANGLE_UNIT ( ) SI_UNIT ( $, .RADIAN. ) );
#193 =( NAMED_UNIT ( * ) SI_UNIT ( $, .STERADIAN. ) SOLID_ANGLE_UNIT ( ) );
#194 = AXIS2_PLACEMENT_3D ( 'NONE', #136, #201, #241 ) ;
#195 = EDGE_LOOP ( 'NONE', ( #12, #3 ) ) ;
#196 = DIRECTION ( 'NONE',  ( 0.0000000000000000000, 0.0000000000000000000, 1.000000000000000000 ) ) ;
#197 = ORIENTED_EDGE ( 'NONE', *, *, #94, .F. ) ;
#198 = FACE_OUTER_BOUND ( 'NONE', #243, .T. ) ;
#199 = CARTESIAN_POINT ( 'NONE',  ( 0.0000000000000000000, 76.19999999999998900, 25.50000000000000400 ) ) ;
#200 = FACE_BOUND ( 'NONE', #195, .T. ) ;
#201 = DIRECTION ( 'NONE',  ( -0.0000000000000000000, 1.000000000000000000, -0.0000000000000000000 ) ) ;
#202 = STYLED_ITEM ( 'NONE', ( #97 ), #10 ) ;
#203 = ORIENTED_EDGE ( 'NONE', *, *, #72, .T. ) ;
#204 = CARTESIAN_POINT ( 'NONE',  ( 0.0000000000000000000, 76.19999999999998900, 28.00000000000002100 ) ) ;
#205 = DIRECTION ( 'NONE',  ( -0.0000000000000000000, 1.000000000000000000, -0.0000000000000000000 ) ) ;
#206 =( GEOMETRIC_REPRESENTATION_CONTEXT ( 3 ) GLOBAL_UNCERTAINTY_ASSIGNED_CONTEXT ( ( #87 ) ) GLOBAL_UNIT_ASSIGNED_CONTEXT ( ( #119, #225, #81 ) ) REPRESENTATION_CONTEXT ( 'NONE', 'WORKASPACE' ) );
#207 = EDGE_LOOP ( 'NONE', ( #75, #239 ) ) ;
#208 = LINE ( 'NONE', #158, #129 ) ;
#209 = PLANE ( 'NONE',  #177 ) ;
#210 = ADVANCED_FACE ( 'NONE', ( #218, #200 ), #144, .F. ) ;
#211 = UNCERTAINTY_MEASURE_WITH_UNIT (LENGTH_MEASURE( 1.000000000000000100E-005 ), #231, 'distance_accuracy_value', 'NONE');
#212 = FACE_OUTER_BOUND ( 'NONE', #100, .T. ) ;
#213 = FILL_AREA_STYLE ('',( #139 ) ) ;
#214 = DIRECTION ( 'NONE',  ( 0.0000000000000000000, 0.0000000000000000000, 1.000000000000000000 ) ) ;
#215 = AXIS2_PLACEMENT_3D ( 'NONE', #242, #15, #162 ) ;
#216 = CYLINDRICAL_SURFACE ( 'NONE', #131, 28.00000000000002100 ) ;
#217 = EDGE_CURVE ( 'NONE', #56, #176, #181, .T. ) ;
#218 = FACE_OUTER_BOUND ( 'NONE', #207, .T. ) ;
#219 = UNCERTAINTY_MEASURE_WITH_UNIT (LENGTH_MEASURE( 1.000000000000000100E-005 ), #172, 'distance_accuracy_value', 'NONE');
#220 = VERTEX_POINT ( 'NONE', #127 ) ;
#221 = FILL_AREA_STYLE_COLOUR ( '', #182 ) ;
#222 = STYLED_ITEM ( 'NONE', ( #146 ), #73 ) ;
#223 = SURFACE_STYLE_USAGE ( .BOTH. , #95 ) ;
#224 = DIRECTION ( 'NONE',  ( 0.0000000000000000000, 0.0000000000000000000, 1.000000000000000000 ) ) ;
#225 =( NAMED_UNIT ( * ) PLANE_ANGLE_UNIT ( ) SI_UNIT ( $, .RADIAN. ) );
#226 = DIRECTION ( 'NONE',  ( 0.0000000000000000000, 0.0000000000000000000, 1.000000000000000000 ) ) ;
#227 = AXIS2_PLACEMENT_3D ( 'NONE', #160, #105, #41 ) ;
#228 = DIRECTION ( 'NONE',  ( -0.0000000000000000000, 1.000000000000000000, -0.0000000000000000000 ) ) ;
#229 = VECTOR ( 'NONE', #191, 1000.000000000000000 ) ;
#230 = CARTESIAN_POINT ( 'NONE',  ( 0.0000000000000000000, -2.775557561562891400E-014, 25.50000000000001400 ) ) ;
#231 =( LENGTH_UNIT ( ) NAMED_UNIT ( * ) SI_UNIT ( .MILLI., .METRE. ) );
#232 = ADVANCED_FACE ( 'NONE', ( #113, #212 ), #209, .F. ) ;
#233 = PRESENTATION_STYLE_ASSIGNMENT (( #157 ) ) ;
#234 = AXIS2_PLACEMENT_3D ( 'NONE', #40, #58, #21 ) ;
#235 = ORIENTED_EDGE ( 'NONE', *, *, #116, .T. ) ;
#236 = CARTESIAN_POINT ( 'NONE',  ( 0.0000000000000000000, -2.775557561562891400E-014, 0.0000000000000000000 ) ) ;
#237 = EDGE_CURVE ( 'NONE', #156, #69, #184, .T. ) ;
#238 =( NAMED_UNIT ( * ) PLANE_ANGLE_UNIT ( ) SI_UNIT ( $, .RADIAN. ) );
#239 = ORIENTED_EDGE ( 'NONE', *, *, #134, .F. ) ;
#240 = DIRECTION ( 'NONE',  ( -0.0000000000000000000, 1.000000000000000000, -0.0000000000000000000 ) ) ;
#241 = DIRECTION ( 'NONE',  ( 0.0000000000000000000, 0.0000000000000000000, 1.000000000000000000 ) ) ;
#242 = CARTESIAN_POINT ( 'NONE',  ( 0.0000000000000000000, 76.19999999999998900, 0.0000000000000000000 ) ) ;
#243 = EDGE_LOOP ( 'NONE', ( #48, #203, #115, #167 ) ) ;
#244 = DIRECTION ( 'NONE',  ( -0.0000000000000000000, 1.000000000000000000, -0.0000000000000000000 ) ) ;
ENDSEC;
END-ISO-10303-21;
