ISO-10303-21;
HEADER;
FILE_DESCRIPTION (( 'STEP AP214' ),
    '1' );
FILE_NAME ('503031.STEP',
    '2019-09-05T07:15:16',
    ( '' ),
    ( '' ),
    'SwSTEP 2.0',
    'SolidWorks 2016',
    '' );
FILE_SCHEMA (( 'AUTOMOTIVE_DESIGN' ));
ENDSEC;

DATA;
#1 = FILL_AREA_STYLE_COLOUR ( '', #178 ) ;
#2 = AXIS2_PLACEMENT_3D ( 'NONE', #156, #64, #138 ) ;
#3 =( NAMED_UNIT ( * ) PLANE_ANGLE_UNIT ( ) SI_UNIT ( $, .RADIAN. ) );
#4 = DIRECTION ( 'NONE',  ( 0.0000000000000000000, 0.0000000000000000000, 1.000000000000000000 ) ) ;
#5 = FILL_AREA_STYLE ('',( #43 ) ) ;
#6 = PLANE ( 'NONE',  #184 ) ;
#7 = FILL_AREA_STYLE ('',( #133 ) ) ;
#8 = ORIENTED_EDGE ( 'NONE', *, *, #85, .F. ) ;
#9 = EDGE_CURVE ( 'NONE', #36, #217, #50, .T. ) ;
#10 =( LENGTH_UNIT ( ) NAMED_UNIT ( * ) SI_UNIT ( .MILLI., .METRE. ) );
#11 = EDGE_LOOP ( 'NONE', ( #66, #223, #225, #118 ) ) ;
#12 = ADVANCED_FACE ( 'NONE', ( #100 ), #143, .T. ) ;
#13 = AXIS2_PLACEMENT_3D ( 'NONE', #151, #93, #231 ) ;
#14 = ORIENTED_EDGE ( 'NONE', *, *, #157, .T. ) ;
#15 = PRESENTATION_LAYER_ASSIGNMENT (  '', '', ( #228 ) ) ;
#16 = CIRCLE ( 'NONE', #116, 20.50000000000001400 ) ;
#17 = EDGE_LOOP ( 'NONE', ( #112, #167, #47, #25 ) ) ;
#18 = DIRECTION ( 'NONE',  ( -0.0000000000000000000, 1.000000000000000000, -0.0000000000000000000 ) ) ;
#19 = ORIENTED_EDGE ( 'NONE', *, *, #60, .T. ) ;
#20 = FACE_BOUND ( 'NONE', #123, .T. ) ;
#21 = DIRECTION ( 'NONE',  ( 0.0000000000000000000, 0.0000000000000000000, 1.000000000000000000 ) ) ;
#22 = AXIS2_PLACEMENT_3D ( 'NONE', #106, #193, #226 ) ;
#23 = CARTESIAN_POINT ( 'NONE',  ( 3.110602869834279600E-015, -2.775557561562891400E-014, -25.40000000000002000 ) ) ;
#24 = CIRCLE ( 'NONE', #101, 25.40000000000002000 ) ;
#25 = ORIENTED_EDGE ( 'NONE', *, *, #32, .F. ) ;
#26 = FILL_AREA_STYLE_COLOUR ( '', #237 ) ;
#27 = VERTEX_POINT ( 'NONE', #190 ) ;
#28 = DIRECTION ( 'NONE',  ( 0.0000000000000000000, 0.0000000000000000000, 1.000000000000000000 ) ) ;
#29 = DIRECTION ( 'NONE',  ( 1.000000000000000000, 0.0000000000000000000, 0.0000000000000000000 ) ) ;
#30 = VERTEX_POINT ( 'NONE', #91 ) ;
#31 = FACE_OUTER_BOUND ( 'NONE', #165, .T. ) ;
#32 = EDGE_CURVE ( 'NONE', #98, #217, #196, .T. ) ;
#33 = CIRCLE ( 'NONE', #22, 20.50000000000001400 ) ;
#34 = FILL_AREA_STYLE ('',( #1 ) ) ;
#35 = PRESENTATION_STYLE_ASSIGNMENT (( #216 ) ) ;
#36 = VERTEX_POINT ( 'NONE', #88 ) ;
#37 = DIRECTION ( 'NONE',  ( 0.0000000000000000000, 0.0000000000000000000, 1.000000000000000000 ) ) ;
#38 = DIRECTION ( 'NONE',  ( 0.0000000000000000000, 0.0000000000000000000, 1.000000000000000000 ) ) ;
#39 = PRESENTATION_STYLE_ASSIGNMENT (( #198 ) ) ;
#40 = SURFACE_STYLE_FILL_AREA ( #5 ) ;
#41 =( NAMED_UNIT ( * ) SI_UNIT ( $, .STERADIAN. ) SOLID_ANGLE_UNIT ( ) );
#42 = DIRECTION ( 'NONE',  ( 0.0000000000000000000, 0.0000000000000000000, 1.000000000000000000 ) ) ;
#43 = FILL_AREA_STYLE_COLOUR ( '', #194 ) ;
#44 =( NAMED_UNIT ( * ) SI_UNIT ( $, .STERADIAN. ) SOLID_ANGLE_UNIT ( ) );
#45 = APPLICATION_PROTOCOL_DEFINITION ( 'draft international standard', 'automotive_design', 1998, #62 ) ;
#46 = CYLINDRICAL_SURFACE ( 'NONE', #13, 20.50000000000001800 ) ;
#47 = ORIENTED_EDGE ( 'NONE', *, *, #220, .F. ) ;
#48 = ADVANCED_FACE ( 'NONE', ( #139 ), #171, .T. ) ;
#49 = MECHANICAL_DESIGN_GEOMETRIC_PRESENTATION_REPRESENTATION (  '', ( #140 ), #90 ) ;
#50 = CIRCLE ( 'NONE', #126, 25.40000000000002000 ) ;
#51 = DIRECTION ( 'NONE',  ( -0.0000000000000000000, 1.000000000000000000, -0.0000000000000000000 ) ) ;
#52 = CARTESIAN_POINT ( 'NONE',  ( 0.0000000000000000000, 161.3761669434274500, 0.0000000000000000000 ) ) ;
#53 = DIRECTION ( 'NONE',  ( -0.0000000000000000000, 1.000000000000000000, -0.0000000000000000000 ) ) ;
#54 = SURFACE_SIDE_STYLE ('',( #84 ) ) ;
#55 = CYLINDRICAL_SURFACE ( 'NONE', #169, 20.50000000000001800 ) ;
#56 = VERTEX_POINT ( 'NONE', #212 ) ;
#57 =( NAMED_UNIT ( * ) SI_UNIT ( $, .STERADIAN. ) SOLID_ANGLE_UNIT ( ) );
#58 = UNCERTAINTY_MEASURE_WITH_UNIT (LENGTH_MEASURE( 1.000000000000000100E-005 ), #10, 'distance_accuracy_value', 'NONE');
#59 = CARTESIAN_POINT ( 'NONE',  ( 0.0000000000000000000, 25.39999999999997700, 20.50000000000001400 ) ) ;
#60 = EDGE_CURVE ( 'NONE', #56, #120, #69, .T. ) ;
#61 = ORIENTED_EDGE ( 'NONE', *, *, #99, .T. ) ;
#62 = APPLICATION_CONTEXT ( 'automotive_design' ) ;
#63 = MECHANICAL_DESIGN_GEOMETRIC_PRESENTATION_REPRESENTATION (  '', ( #228 ), #72 ) ;
#64 = DIRECTION ( 'NONE',  ( -0.0000000000000000000, 1.000000000000000000, -0.0000000000000000000 ) ) ;
#65 = COLOUR_RGB ( '',1.000000000000000000, 1.000000000000000000, 1.000000000000000000 ) ;
#66 = ORIENTED_EDGE ( 'NONE', *, *, #86, .F. ) ;
#67 = EDGE_CURVE ( 'NONE', #120, #27, #33, .T. ) ;
#68 = ADVANCED_FACE ( 'NONE', ( #203 ), #55, .F. ) ;
#69 = LINE ( 'NONE', #168, #242 ) ;
#70 = CARTESIAN_POINT ( 'NONE',  ( 0.0000000000000000000, 161.3761669434274500, 25.40000000000002000 ) ) ;
#71 =( LENGTH_UNIT ( ) NAMED_UNIT ( * ) SI_UNIT ( .MILLI., .METRE. ) );
#72 =( GEOMETRIC_REPRESENTATION_CONTEXT ( 3 ) GLOBAL_UNCERTAINTY_ASSIGNED_CONTEXT ( ( #58 ) ) GLOBAL_UNIT_ASSIGNED_CONTEXT ( ( #10, #82, #44 ) ) REPRESENTATION_CONTEXT ( 'NONE', 'WORKASPACE' ) );
#73 = ORIENTED_EDGE ( 'NONE', *, *, #244, .T. ) ;
#74 = SURFACE_STYLE_USAGE ( .BOTH. , #132 ) ;
#75 = ORIENTED_EDGE ( 'NONE', *, *, #67, .T. ) ;
#76 = CARTESIAN_POINT ( 'NONE',  ( 0.0000000000000000000, -2.775557561562891400E-014, 0.0000000000000000000 ) ) ;
#77 = FACE_OUTER_BOUND ( 'NONE', #172, .T. ) ;
#78 =( NAMED_UNIT ( * ) PLANE_ANGLE_UNIT ( ) SI_UNIT ( $, .RADIAN. ) );
#79 = DIRECTION ( 'NONE',  ( 0.0000000000000000000, -0.0000000000000000000, -1.000000000000000000 ) ) ;
#80 = SURFACE_STYLE_FILL_AREA ( #117 ) ;
#81 = PRODUCT ( '503031', '503031', '', ( #181 ) ) ;
#82 =( NAMED_UNIT ( * ) PLANE_ANGLE_UNIT ( ) SI_UNIT ( $, .RADIAN. ) );
#83 = SURFACE_SIDE_STYLE ('',( #80 ) ) ;
#84 = SURFACE_STYLE_FILL_AREA ( #7 ) ;
#85 = EDGE_CURVE ( 'NONE', #205, #98, #24, .T. ) ;
#86 = EDGE_CURVE ( 'NONE', #205, #36, #236, .T. ) ;
#87 = ORIENTED_EDGE ( 'NONE', *, *, #244, .F. ) ;
#88 = CARTESIAN_POINT ( 'NONE',  ( 3.110602869834279600E-015, 25.39999999999997700, -25.40000000000002000 ) ) ;
#89 = SURFACE_SIDE_STYLE ('',( #142 ) ) ;
#90 =( GEOMETRIC_REPRESENTATION_CONTEXT ( 3 ) GLOBAL_UNCERTAINTY_ASSIGNED_CONTEXT ( ( #108 ) ) GLOBAL_UNIT_ASSIGNED_CONTEXT ( ( #177, #107, #195 ) ) REPRESENTATION_CONTEXT ( 'NONE', 'WORKASPACE' ) );
#91 = CARTESIAN_POINT ( 'NONE',  ( 2.510525938252076500E-015, -2.775557561562891400E-014, -20.50000000000002100 ) ) ;
#92 = CARTESIAN_POINT ( 'NONE',  ( 0.0000000000000000000, 25.39999999999997700, 25.40000000000002000 ) ) ;
#93 = DIRECTION ( 'NONE',  ( -0.0000000000000000000, 1.000000000000000000, -0.0000000000000000000 ) ) ;
#94 = CARTESIAN_POINT ( 'NONE',  ( 2.510525938252076100E-015, 161.3761669434274500, -20.50000000000001800 ) ) ;
#95 = FACE_OUTER_BOUND ( 'NONE', #162, .T. ) ;
#96 =( GEOMETRIC_REPRESENTATION_CONTEXT ( 3 ) GLOBAL_UNCERTAINTY_ASSIGNED_CONTEXT ( ( #218 ) ) GLOBAL_UNIT_ASSIGNED_CONTEXT ( ( #149, #78, #57 ) ) REPRESENTATION_CONTEXT ( 'NONE', 'WORKASPACE' ) );
#97 =( LENGTH_UNIT ( ) NAMED_UNIT ( * ) SI_UNIT ( .MILLI., .METRE. ) );
#98 = VERTEX_POINT ( 'NONE', #215 ) ;
#99 = EDGE_CURVE ( 'NONE', #27, #120, #16, .T. ) ;
#100 = FACE_OUTER_BOUND ( 'NONE', #17, .T. ) ;
#101 = AXIS2_PLACEMENT_3D ( 'NONE', #76, #150, #42 ) ;
#102 = VECTOR ( 'NONE', #131, 1000.000000000000000 ) ;
#103 = SURFACE_STYLE_USAGE ( .BOTH. , #89 ) ;
#104 = PRODUCT_DEFINITION ( 'Î´Öª', '', #121, #113 ) ;
#105 = ORIENTED_EDGE ( 'NONE', *, *, #188, .T. ) ;
#106 = CARTESIAN_POINT ( 'NONE',  ( 0.0000000000000000000, 25.39999999999997700, 0.0000000000000000000 ) ) ;
#107 =( NAMED_UNIT ( * ) PLANE_ANGLE_UNIT ( ) SI_UNIT ( $, .RADIAN. ) );
#108 = UNCERTAINTY_MEASURE_WITH_UNIT (LENGTH_MEASURE( 1.000000000000000100E-005 ), #177, 'distance_accuracy_value', 'NONE');
#109 = DIRECTION ( 'NONE',  ( 0.0000000000000000000, -1.000000000000000000, 0.0000000000000000000 ) ) ;
#110 = ORIENTED_EDGE ( 'NONE', *, *, #99, .F. ) ;
#111 = CARTESIAN_POINT ( 'NONE',  ( 20.50000000000002100, -1.424099456732195600E-014, 0.0000000000000000000 ) ) ;
#112 = ORIENTED_EDGE ( 'NONE', *, *, #210, .T. ) ;
#113 = PRODUCT_DEFINITION_CONTEXT ( 'detailed design', #119, 'design' ) ;
#114 = AXIS2_PLACEMENT_3D ( 'NONE', #170, #53, #233 ) ;
#115 = DIRECTION ( 'NONE',  ( 0.0000000000000000000, 0.0000000000000000000, 1.000000000000000000 ) ) ;
#116 = AXIS2_PLACEMENT_3D ( 'NONE', #197, #232, #176 ) ;
#117 = FILL_AREA_STYLE ('',( #26 ) ) ;
#118 = ORIENTED_EDGE ( 'NONE', *, *, #9, .F. ) ;
#119 = APPLICATION_CONTEXT ( 'automotive_design' ) ;
#120 = VERTEX_POINT ( 'NONE', #59 ) ;
#121 = PRODUCT_DEFINITION_FORMATION_WITH_SPECIFIED_SOURCE ( 'ÈÎºÎ', '', #81, .NOT_KNOWN. ) ;
#122 = ADVANCED_FACE ( 'NONE', ( #95 ), #46, .F. ) ;
#123 = EDGE_LOOP ( 'NONE', ( #222, #110 ) ) ;
#124 = LINE ( 'NONE', #94, #102 ) ;
#125 = CARTESIAN_POINT ( 'NONE',  ( 0.0000000000000000000, 161.3761669434274500, 0.0000000000000000000 ) ) ;
#126 = AXIS2_PLACEMENT_3D ( 'NONE', #128, #227, #21 ) ;
#127 = ORIENTED_EDGE ( 'NONE', *, *, #188, .F. ) ;
#128 = CARTESIAN_POINT ( 'NONE',  ( 0.0000000000000000000, 25.39999999999997700, 0.0000000000000000000 ) ) ;
#129 = DIRECTION ( 'NONE',  ( 0.0000000000000000000, 0.0000000000000000000, 1.000000000000000000 ) ) ;
#130 = VECTOR ( 'NONE', #148, 1000.000000000000000 ) ;
#131 = DIRECTION ( 'NONE',  ( -0.0000000000000000000, 1.000000000000000000, -0.0000000000000000000 ) ) ;
#132 = SURFACE_SIDE_STYLE ('',( #40 ) ) ;
#133 = FILL_AREA_STYLE_COLOUR ( '', #65 ) ;
#134 =( NAMED_UNIT ( * ) SI_UNIT ( $, .STERADIAN. ) SOLID_ANGLE_UNIT ( ) );
#135 = DIRECTION ( 'NONE',  ( -0.0000000000000000000, 1.000000000000000000, -0.0000000000000000000 ) ) ;
#136 = PRODUCT_DEFINITION_SHAPE ( 'NONE', 'NONE',  #104 ) ;
#137 = AXIS2_PLACEMENT_3D ( 'NONE', #183, #221, #29 ) ;
#138 = DIRECTION ( 'NONE',  ( 0.0000000000000000000, 0.0000000000000000000, 1.000000000000000000 ) ) ;
#139 = FACE_OUTER_BOUND ( 'NONE', #11, .T. ) ;
#140 = STYLED_ITEM ( 'NONE', ( #238 ), #207 ) ;
#141 = PRESENTATION_STYLE_ASSIGNMENT (( #103 ) ) ;
#142 = SURFACE_STYLE_FILL_AREA ( #34 ) ;
#143 = CYLINDRICAL_SURFACE ( 'NONE', #192, 25.40000000000002000 ) ;
#144 = DIRECTION ( 'NONE',  ( -0.0000000000000000000, 1.000000000000000000, -0.0000000000000000000 ) ) ;
#145 = STYLED_ITEM ( 'NONE', ( #141 ), #68 ) ;
#146 = AXIS2_PLACEMENT_3D ( 'NONE', #153, #200, #115 ) ;
#147 = ORIENTED_EDGE ( 'NONE', *, *, #220, .T. ) ;
#148 = DIRECTION ( 'NONE',  ( -0.0000000000000000000, 1.000000000000000000, -0.0000000000000000000 ) ) ;
#149 =( LENGTH_UNIT ( ) NAMED_UNIT ( * ) SI_UNIT ( .MILLI., .METRE. ) );
#150 = DIRECTION ( 'NONE',  ( -0.0000000000000000000, 1.000000000000000000, -0.0000000000000000000 ) ) ;
#151 = CARTESIAN_POINT ( 'NONE',  ( 0.0000000000000000000, 161.3761669434274500, 0.0000000000000000000 ) ) ;
#152 = CARTESIAN_POINT ( 'NONE',  ( 20.50000000000001400, 25.39999999999998400, 0.0000000000000000000 ) ) ;
#153 = CARTESIAN_POINT ( 'NONE',  ( 0.0000000000000000000, -2.775557561562891400E-014, 0.0000000000000000000 ) ) ;
#154 = ORIENTED_EDGE ( 'NONE', *, *, #9, .T. ) ;
#155 = SHAPE_DEFINITION_REPRESENTATION ( #136, #185 ) ;
#156 = CARTESIAN_POINT ( 'NONE',  ( 0.0000000000000000000, 25.39999999999997700, 0.0000000000000000000 ) ) ;
#157 = EDGE_CURVE ( 'NONE', #56, #30, #187, .T. ) ;
#158 = APPLICATION_PROTOCOL_DEFINITION ( 'draft international standard', 'automotive_design', 1998, #119 ) ;
#159 =( GEOMETRIC_REPRESENTATION_CONTEXT ( 3 ) GLOBAL_UNCERTAINTY_ASSIGNED_CONTEXT ( ( #189 ) ) GLOBAL_UNIT_ASSIGNED_CONTEXT ( ( #71, #3, #41 ) ) REPRESENTATION_CONTEXT ( 'NONE', 'WORKASPACE' ) );
#160 = ORIENTED_EDGE ( 'NONE', *, *, #60, .F. ) ;
#161 = CIRCLE ( 'NONE', #146, 20.50000000000002100 ) ;
#162 = EDGE_LOOP ( 'NONE', ( #87, #105, #61, #160 ) ) ;
#163 = AXIS2_PLACEMENT_3D ( 'NONE', #125, #18, #129 ) ;
#164 = PRODUCT_RELATED_PRODUCT_CATEGORY ( 'part', '', ( #81 ) ) ;
#165 = EDGE_LOOP ( 'NONE', ( #147, #154 ) ) ;
#166 = UNCERTAINTY_MEASURE_WITH_UNIT (LENGTH_MEASURE( 1.000000000000000100E-005 ), #97, 'distance_accuracy_value', 'NONE');
#167 = ORIENTED_EDGE ( 'NONE', *, *, #86, .T. ) ;
#168 = CARTESIAN_POINT ( 'NONE',  ( 0.0000000000000000000, 161.3761669434274500, 20.50000000000001800 ) ) ;
#169 = AXIS2_PLACEMENT_3D ( 'NONE', #52, #229, #38 ) ;
#170 = CARTESIAN_POINT ( 'NONE',  ( 0.0000000000000000000, -2.775557561562891400E-014, 0.0000000000000000000 ) ) ;
#171 = CYLINDRICAL_SURFACE ( 'NONE', #163, 25.40000000000002000 ) ;
#172 = EDGE_LOOP ( 'NONE', ( #213, #8 ) ) ;
#173 = CIRCLE ( 'NONE', #2, 25.40000000000002000 ) ;
#174 = DIRECTION ( 'NONE',  ( -0.0000000000000000000, 1.000000000000000000, 0.0000000000000000000 ) ) ;
#175 = STYLED_ITEM ( 'NONE', ( #35 ), #122 ) ;
#176 = DIRECTION ( 'NONE',  ( 0.0000000000000000000, 0.0000000000000000000, 1.000000000000000000 ) ) ;
#177 =( LENGTH_UNIT ( ) NAMED_UNIT ( * ) SI_UNIT ( .MILLI., .METRE. ) );
#178 = COLOUR_RGB ( '',1.000000000000000000, 1.000000000000000000, 1.000000000000000000 ) ;
#179 = ORIENTED_EDGE ( 'NONE', *, *, #157, .F. ) ;
#180 = CIRCLE ( 'NONE', #214, 25.40000000000002000 ) ;
#181 = PRODUCT_CONTEXT ( 'NONE', #62, 'mechanical' ) ;
#182 = MECHANICAL_DESIGN_GEOMETRIC_PRESENTATION_REPRESENTATION (  '', ( #145 ), #159 ) ;
#183 = CARTESIAN_POINT ( 'NONE',  ( 0.0000000000000000000, 0.0000000000000000000, 0.0000000000000000000 ) ) ;
#184 = AXIS2_PLACEMENT_3D ( 'NONE', #152, #109, #79 ) ;
#185 = ADVANCED_BREP_SHAPE_REPRESENTATION ( '503031', ( #207, #137 ), #235 ) ;
#186 = EDGE_LOOP ( 'NONE', ( #14, #73 ) ) ;
#187 = CIRCLE ( 'NONE', #114, 20.50000000000002100 ) ;
#188 = EDGE_CURVE ( 'NONE', #30, #27, #124, .T. ) ;
#189 = UNCERTAINTY_MEASURE_WITH_UNIT (LENGTH_MEASURE( 1.000000000000000100E-005 ), #71, 'distance_accuracy_value', 'NONE');
#190 = CARTESIAN_POINT ( 'NONE',  ( 2.510525938252075700E-015, 25.39999999999997700, -20.50000000000001400 ) ) ;
#191 = CARTESIAN_POINT ( 'NONE',  ( 0.0000000000000000000, 161.3761669434274500, 0.0000000000000000000 ) ) ;
#192 = AXIS2_PLACEMENT_3D ( 'NONE', #191, #51, #37 ) ;
#193 = DIRECTION ( 'NONE',  ( -0.0000000000000000000, 1.000000000000000000, -0.0000000000000000000 ) ) ;
#194 = COLOUR_RGB ( '',1.000000000000000000, 1.000000000000000000, 1.000000000000000000 ) ;
#195 =( NAMED_UNIT ( * ) SI_UNIT ( $, .STERADIAN. ) SOLID_ANGLE_UNIT ( ) );
#196 = LINE ( 'NONE', #70, #240 ) ;
#197 = CARTESIAN_POINT ( 'NONE',  ( 0.0000000000000000000, 25.39999999999997700, 0.0000000000000000000 ) ) ;
#198 = SURFACE_STYLE_USAGE ( .BOTH. , #83 ) ;
#199 = PRESENTATION_LAYER_ASSIGNMENT (  '', '', ( #140 ) ) ;
#200 = DIRECTION ( 'NONE',  ( -0.0000000000000000000, 1.000000000000000000, -0.0000000000000000000 ) ) ;
#201 = CARTESIAN_POINT ( 'NONE',  ( 0.0000000000000000000, -2.775557561562891400E-014, 0.0000000000000000000 ) ) ;
#202 = PRESENTATION_LAYER_ASSIGNMENT (  '', '', ( #175 ) ) ;
#203 = FACE_OUTER_BOUND ( 'NONE', #243, .T. ) ;
#204 = ADVANCED_FACE ( 'NONE', ( #20, #31 ), #6, .F. ) ;
#205 = VERTEX_POINT ( 'NONE', #23 ) ;
#206 = ADVANCED_FACE ( 'NONE', ( #77, #209 ), #234, .F. ) ;
#207 = MANIFOLD_SOLID_BREP ( 'Ðý×ª1', #208 ) ;
#208 = CLOSED_SHELL ( 'NONE', ( #122, #12, #206, #48, #204, #68 ) ) ;
#209 = FACE_BOUND ( 'NONE', #186, .T. ) ;
#210 = EDGE_CURVE ( 'NONE', #98, #205, #180, .T. ) ;
#211 = DIRECTION ( 'NONE',  ( -0.0000000000000000000, 1.000000000000000000, -0.0000000000000000000 ) ) ;
#212 = CARTESIAN_POINT ( 'NONE',  ( 0.0000000000000000000, -2.775557561562891400E-014, 20.50000000000002100 ) ) ;
#213 = ORIENTED_EDGE ( 'NONE', *, *, #210, .F. ) ;
#214 = AXIS2_PLACEMENT_3D ( 'NONE', #201, #135, #28 ) ;
#215 = CARTESIAN_POINT ( 'NONE',  ( 0.0000000000000000000, -2.775557561562891400E-014, 25.40000000000002000 ) ) ;
#216 = SURFACE_STYLE_USAGE ( .BOTH. , #54 ) ;
#217 = VERTEX_POINT ( 'NONE', #92 ) ;
#218 = UNCERTAINTY_MEASURE_WITH_UNIT (LENGTH_MEASURE( 1.000000000000000100E-005 ), #149, 'distance_accuracy_value', 'NONE');
#219 = MECHANICAL_DESIGN_GEOMETRIC_PRESENTATION_REPRESENTATION (  '', ( #175 ), #96 ) ;
#220 = EDGE_CURVE ( 'NONE', #217, #36, #173, .T. ) ;
#221 = DIRECTION ( 'NONE',  ( 0.0000000000000000000, 0.0000000000000000000, 1.000000000000000000 ) ) ;
#222 = ORIENTED_EDGE ( 'NONE', *, *, #67, .F. ) ;
#223 = ORIENTED_EDGE ( 'NONE', *, *, #85, .T. ) ;
#224 = PRESENTATION_LAYER_ASSIGNMENT (  '', '', ( #145 ) ) ;
#225 = ORIENTED_EDGE ( 'NONE', *, *, #32, .T. ) ;
#226 = DIRECTION ( 'NONE',  ( 0.0000000000000000000, 0.0000000000000000000, 1.000000000000000000 ) ) ;
#227 = DIRECTION ( 'NONE',  ( -0.0000000000000000000, 1.000000000000000000, -0.0000000000000000000 ) ) ;
#228 = STYLED_ITEM ( 'NONE', ( #39 ), #185 ) ;
#229 = DIRECTION ( 'NONE',  ( -0.0000000000000000000, 1.000000000000000000, -0.0000000000000000000 ) ) ;
#230 = CARTESIAN_POINT ( 'NONE',  ( 3.110602869834279600E-015, 161.3761669434274500, -25.40000000000002000 ) ) ;
#231 = DIRECTION ( 'NONE',  ( 0.0000000000000000000, 0.0000000000000000000, 1.000000000000000000 ) ) ;
#232 = DIRECTION ( 'NONE',  ( -0.0000000000000000000, 1.000000000000000000, -0.0000000000000000000 ) ) ;
#233 = DIRECTION ( 'NONE',  ( 0.0000000000000000000, 0.0000000000000000000, 1.000000000000000000 ) ) ;
#234 = PLANE ( 'NONE',  #241 ) ;
#235 =( GEOMETRIC_REPRESENTATION_CONTEXT ( 3 ) GLOBAL_UNCERTAINTY_ASSIGNED_CONTEXT ( ( #166 ) ) GLOBAL_UNIT_ASSIGNED_CONTEXT ( ( #97, #239, #134 ) ) REPRESENTATION_CONTEXT ( 'NONE', 'WORKASPACE' ) );
#236 = LINE ( 'NONE', #230, #130 ) ;
#237 = COLOUR_RGB ( '',1.000000000000000000, 1.000000000000000000, 1.000000000000000000 ) ;
#238 = PRESENTATION_STYLE_ASSIGNMENT (( #74 ) ) ;
#239 =( NAMED_UNIT ( * ) PLANE_ANGLE_UNIT ( ) SI_UNIT ( $, .RADIAN. ) );
#240 = VECTOR ( 'NONE', #211, 1000.000000000000000 ) ;
#241 = AXIS2_PLACEMENT_3D ( 'NONE', #111, #174, #4 ) ;
#242 = VECTOR ( 'NONE', #144, 1000.000000000000000 ) ;
#243 = EDGE_LOOP ( 'NONE', ( #127, #179, #19, #75 ) ) ;
#244 = EDGE_CURVE ( 'NONE', #30, #56, #161, .T. ) ;
ENDSEC;
END-ISO-10303-21;
