ISO-10303-21;
HEADER;
FILE_DESCRIPTION (( 'STEP AP214' ),
    '1' );
FILE_NAME ('503032.STEP',
    '2019-09-05T07:21:30',
    ( '' ),
    ( '' ),
    'SwSTEP 2.0',
    'SolidWorks 2016',
    '' );
FILE_SCHEMA (( 'AUTOMOTIVE_DESIGN' ));
ENDSEC;

DATA;
#1 = DIRECTION ( 'NONE',  ( -0.0000000000000000000, 1.000000000000000000, -0.0000000000000000000 ) ) ;
#2 = MECHANICAL_DESIGN_GEOMETRIC_PRESENTATION_REPRESENTATION (  '', ( #186 ), #227 ) ;
#3 = EDGE_CURVE ( 'NONE', #234, #177, #20, .T. ) ;
#4 =( NAMED_UNIT ( * ) PLANE_ANGLE_UNIT ( ) SI_UNIT ( $, .RADIAN. ) );
#5 = ORIENTED_EDGE ( 'NONE', *, *, #3, .F. ) ;
#6 =( LENGTH_UNIT ( ) NAMED_UNIT ( * ) SI_UNIT ( .MILLI., .METRE. ) );
#7 = CARTESIAN_POINT ( 'NONE',  ( 0.0000000000000000000, 0.0000000000000000000, 0.0000000000000000000 ) ) ;
#8 = FILL_AREA_STYLE ('',( #42 ) ) ;
#9 = FACE_OUTER_BOUND ( 'NONE', #86, .T. ) ;
#10 = CARTESIAN_POINT ( 'NONE',  ( 0.0000000000000000000, 12.69999999999998900, 0.0000000000000000000 ) ) ;
#11 = CARTESIAN_POINT ( 'NONE',  ( 0.0000000000000000000, 12.69999999999998900, 20.50000000000001800 ) ) ;
#12 = FACE_OUTER_BOUND ( 'NONE', #201, .T. ) ;
#13 = EDGE_LOOP ( 'NONE', ( #70, #23, #170, #106 ) ) ;
#14 = DIRECTION ( 'NONE',  ( -0.0000000000000000000, 1.000000000000000000, -0.0000000000000000000 ) ) ;
#15 = ADVANCED_BREP_SHAPE_REPRESENTATION ( '503032', ( #39, #50 ), #21 ) ;
#16 = AXIS2_PLACEMENT_3D ( 'NONE', #47, #154, #179 ) ;
#17 = ORIENTED_EDGE ( 'NONE', *, *, #71, .F. ) ;
#18 = VECTOR ( 'NONE', #14, 1000.000000000000000 ) ;
#19 = CARTESIAN_POINT ( 'NONE',  ( 0.0000000000000000000, -2.775557561562891400E-014, 0.0000000000000000000 ) ) ;
#20 = CIRCLE ( 'NONE', #92, 20.50000000000001800 ) ;
#21 =( GEOMETRIC_REPRESENTATION_CONTEXT ( 3 ) GLOBAL_UNCERTAINTY_ASSIGNED_CONTEXT ( ( #238 ) ) GLOBAL_UNIT_ASSIGNED_CONTEXT ( ( #105, #224, #236 ) ) REPRESENTATION_CONTEXT ( 'NONE', 'WORKASPACE' ) );
#22 = AXIS2_PLACEMENT_3D ( 'NONE', #161, #199, #48 ) ;
#23 = ORIENTED_EDGE ( 'NONE', *, *, #156, .F. ) ;
#24 = DIRECTION ( 'NONE',  ( 1.000000000000000000, 0.0000000000000000000, 0.0000000000000000000 ) ) ;
#25 = AXIS2_PLACEMENT_3D ( 'NONE', #127, #164, #163 ) ;
#26 = PRODUCT_DEFINITION_CONTEXT ( 'detailed design', #31, 'design' ) ;
#27 = ADVANCED_FACE ( 'NONE', ( #9 ), #198, .T. ) ;
#28 = FILL_AREA_STYLE ('',( #91 ) ) ;
#29 = CIRCLE ( 'NONE', #22, 20.50000000000002100 ) ;
#30 = DIRECTION ( 'NONE',  ( -0.0000000000000000000, 1.000000000000000000, -0.0000000000000000000 ) ) ;
#31 = APPLICATION_CONTEXT ( 'automotive_design' ) ;
#32 = SURFACE_SIDE_STYLE ('',( #85 ) ) ;
#33 =( LENGTH_UNIT ( ) NAMED_UNIT ( * ) SI_UNIT ( .MILLI., .METRE. ) );
#34 = FILL_AREA_STYLE ('',( #128 ) ) ;
#35 = LINE ( 'NONE', #166, #18 ) ;
#36 = AXIS2_PLACEMENT_3D ( 'NONE', #65, #77, #182 ) ;
#37 =( LENGTH_UNIT ( ) NAMED_UNIT ( * ) SI_UNIT ( .MILLI., .METRE. ) );
#38 = CYLINDRICAL_SURFACE ( 'NONE', #36, 20.50000000000001800 ) ;
#39 = MANIFOLD_SOLID_BREP ( 'Ðý×ª1', #184 ) ;
#40 = EDGE_CURVE ( 'NONE', #52, #213, #147, .T. ) ;
#41 =( NAMED_UNIT ( * ) SI_UNIT ( $, .STERADIAN. ) SOLID_ANGLE_UNIT ( ) );
#42 = FILL_AREA_STYLE_COLOUR ( '', #194 ) ;
#43 = ORIENTED_EDGE ( 'NONE', *, *, #143, .T. ) ;
#44 = PRODUCT_DEFINITION_FORMATION_WITH_SPECIFIED_SOURCE ( 'ÈÎºÎ', '', #171, .NOT_KNOWN. ) ;
#45 = CIRCLE ( 'NONE', #138, 25.40000000000002000 ) ;
#46 = VECTOR ( 'NONE', #123, 1000.000000000000000 ) ;
#47 = CARTESIAN_POINT ( 'NONE',  ( 0.0000000000000000000, 161.3761669434274500, 0.0000000000000000000 ) ) ;
#48 = DIRECTION ( 'NONE',  ( 0.0000000000000000000, 0.0000000000000000000, 1.000000000000000000 ) ) ;
#49 = EDGE_LOOP ( 'NONE', ( #5, #17 ) ) ;
#50 = AXIS2_PLACEMENT_3D ( 'NONE', #7, #180, #24 ) ;
#51 = CARTESIAN_POINT ( 'NONE',  ( 20.50000000000002100, -1.424099456732195600E-014, 0.0000000000000000000 ) ) ;
#52 = VERTEX_POINT ( 'NONE', #74 ) ;
#53 = VERTEX_POINT ( 'NONE', #226 ) ;
#54 = SURFACE_STYLE_FILL_AREA ( #28 ) ;
#55 = ORIENTED_EDGE ( 'NONE', *, *, #71, .T. ) ;
#56 = ORIENTED_EDGE ( 'NONE', *, *, #81, .T. ) ;
#57 = SHAPE_DEFINITION_REPRESENTATION ( #218, #15 ) ;
#58 = EDGE_CURVE ( 'NONE', #213, #52, #45, .T. ) ;
#59 = VERTEX_POINT ( 'NONE', #82 ) ;
#60 = PRODUCT_DEFINITION ( 'Î´Öª', '', #44, #26 ) ;
#61 =( NAMED_UNIT ( * ) SI_UNIT ( $, .STERADIAN. ) SOLID_ANGLE_UNIT ( ) );
#62 = CARTESIAN_POINT ( 'NONE',  ( 0.0000000000000000000, 161.3761669434274500, 20.50000000000001800 ) ) ;
#63 = APPLICATION_PROTOCOL_DEFINITION ( 'draft international standard', 'automotive_design', 1998, #31 ) ;
#64 = COLOUR_RGB ( '',1.000000000000000000, 1.000000000000000000, 1.000000000000000000 ) ;
#65 = CARTESIAN_POINT ( 'NONE',  ( 0.0000000000000000000, 161.3761669434274500, 0.0000000000000000000 ) ) ;
#66 = STYLED_ITEM ( 'NONE', ( #119 ), #135 ) ;
#67 = CARTESIAN_POINT ( 'NONE',  ( 0.0000000000000000000, 12.69999999999998900, 0.0000000000000000000 ) ) ;
#68 = ORIENTED_EDGE ( 'NONE', *, *, #158, .F. ) ;
#69 = SURFACE_SIDE_STYLE ('',( #140 ) ) ;
#70 = ORIENTED_EDGE ( 'NONE', *, *, #188, .F. ) ;
#71 = EDGE_CURVE ( 'NONE', #177, #234, #87, .T. ) ;
#72 = PRESENTATION_LAYER_ASSIGNMENT (  '', '', ( #66 ) ) ;
#73 = FILL_AREA_STYLE ('',( #197 ) ) ;
#74 = CARTESIAN_POINT ( 'NONE',  ( 3.110602869834279600E-015, -2.775557561562891400E-014, -25.40000000000002000 ) ) ;
#75 = DIRECTION ( 'NONE',  ( -0.0000000000000000000, 1.000000000000000000, -0.0000000000000000000 ) ) ;
#76 = PRODUCT_CONTEXT ( 'NONE', #141, 'mechanical' ) ;
#77 = DIRECTION ( 'NONE',  ( -0.0000000000000000000, 1.000000000000000000, -0.0000000000000000000 ) ) ;
#78 =( NAMED_UNIT ( * ) SI_UNIT ( $, .STERADIAN. ) SOLID_ANGLE_UNIT ( ) );
#79 =( GEOMETRIC_REPRESENTATION_CONTEXT ( 3 ) GLOBAL_UNCERTAINTY_ASSIGNED_CONTEXT ( ( #129 ) ) GLOBAL_UNIT_ASSIGNED_CONTEXT ( ( #6, #4, #61 ) ) REPRESENTATION_CONTEXT ( 'NONE', 'WORKASPACE' ) );
#80 = DIRECTION ( 'NONE',  ( 0.0000000000000000000, 0.0000000000000000000, 1.000000000000000000 ) ) ;
#81 = EDGE_CURVE ( 'NONE', #221, #83, #131, .T. ) ;
#82 = CARTESIAN_POINT ( 'NONE',  ( 0.0000000000000000000, -2.775557561562891400E-014, 20.50000000000002100 ) ) ;
#83 = VERTEX_POINT ( 'NONE', #110 ) ;
#84 = CARTESIAN_POINT ( 'NONE',  ( 2.510525938252076100E-015, 12.69999999999998900, -20.50000000000001800 ) ) ;
#85 = SURFACE_STYLE_FILL_AREA ( #8 ) ;
#86 = EDGE_LOOP ( 'NONE', ( #211, #145, #139, #192 ) ) ;
#87 = CIRCLE ( 'NONE', #152, 20.50000000000001800 ) ;
#88 = SURFACE_SIDE_STYLE ('',( #111 ) ) ;
#89 = DIRECTION ( 'NONE',  ( -0.0000000000000000000, 1.000000000000000000, -0.0000000000000000000 ) ) ;
#90 = ORIENTED_EDGE ( 'NONE', *, *, #188, .T. ) ;
#91 = FILL_AREA_STYLE_COLOUR ( '', #100 ) ;
#92 = AXIS2_PLACEMENT_3D ( 'NONE', #148, #225, #173 ) ;
#93 = PRESENTATION_STYLE_ASSIGNMENT (( #151 ) ) ;
#94 = ADVANCED_FACE ( 'NONE', ( #237, #103 ), #219, .F. ) ;
#95 = DIRECTION ( 'NONE',  ( 0.0000000000000000000, 0.0000000000000000000, 1.000000000000000000 ) ) ;
#96 = ORIENTED_EDGE ( 'NONE', *, *, #40, .T. ) ;
#97 = DIRECTION ( 'NONE',  ( 0.0000000000000000000, -1.000000000000000000, 0.0000000000000000000 ) ) ;
#98 =( NAMED_UNIT ( * ) PLANE_ANGLE_UNIT ( ) SI_UNIT ( $, .RADIAN. ) );
#99 = CARTESIAN_POINT ( 'NONE',  ( 2.510525938252076100E-015, 161.3761669434274500, -20.50000000000001800 ) ) ;
#100 = COLOUR_RGB ( '',1.000000000000000000, 1.000000000000000000, 1.000000000000000000 ) ;
#101 = EDGE_CURVE ( 'NONE', #59, #234, #241, .T. ) ;
#102 = DIRECTION ( 'NONE',  ( 0.0000000000000000000, 0.0000000000000000000, 1.000000000000000000 ) ) ;
#103 = FACE_OUTER_BOUND ( 'NONE', #155, .T. ) ;
#104 = FACE_OUTER_BOUND ( 'NONE', #160, .T. ) ;
#105 =( LENGTH_UNIT ( ) NAMED_UNIT ( * ) SI_UNIT ( .MILLI., .METRE. ) );
#106 = ORIENTED_EDGE ( 'NONE', *, *, #3, .T. ) ;
#107 = PRESENTATION_LAYER_ASSIGNMENT (  '', '', ( #186 ) ) ;
#108 = MECHANICAL_DESIGN_GEOMETRIC_PRESENTATION_REPRESENTATION (  '', ( #215 ), #190 ) ;
#109 = ORIENTED_EDGE ( 'NONE', *, *, #156, .T. ) ;
#110 = CARTESIAN_POINT ( 'NONE',  ( 3.110602869834279600E-015, 12.69999999999998900, -25.40000000000002000 ) ) ;
#111 = SURFACE_STYLE_FILL_AREA ( #73 ) ;
#112 = EDGE_CURVE ( 'NONE', #53, #59, #29, .T. ) ;
#113 =( NAMED_UNIT ( * ) SI_UNIT ( $, .STERADIAN. ) SOLID_ANGLE_UNIT ( ) );
#114 = UNCERTAINTY_MEASURE_WITH_UNIT (LENGTH_MEASURE( 1.000000000000000100E-005 ), #37, 'distance_accuracy_value', 'NONE');
#115 = EDGE_LOOP ( 'NONE', ( #109, #134 ) ) ;
#116 = ADVANCED_FACE ( 'NONE', ( #12 ), #230, .T. ) ;
#117 = CIRCLE ( 'NONE', #222, 25.40000000000002000 ) ;
#118 = ADVANCED_FACE ( 'NONE', ( #136 ), #38, .F. ) ;
#119 = PRESENTATION_STYLE_ASSIGNMENT (( #183 ) ) ;
#120 = CARTESIAN_POINT ( 'NONE',  ( 0.0000000000000000000, 161.3761669434274500, 0.0000000000000000000 ) ) ;
#121 = SURFACE_STYLE_USAGE ( .BOTH. , #69 ) ;
#122 = CARTESIAN_POINT ( 'NONE',  ( 0.0000000000000000000, 161.3761669434274500, 25.40000000000002000 ) ) ;
#123 = DIRECTION ( 'NONE',  ( -0.0000000000000000000, 1.000000000000000000, -0.0000000000000000000 ) ) ;
#124 = AXIS2_PLACEMENT_3D ( 'NONE', #231, #97, #208 ) ;
#125 = CARTESIAN_POINT ( 'NONE',  ( 0.0000000000000000000, -2.775557561562891400E-014, 25.40000000000002000 ) ) ;
#126 = VECTOR ( 'NONE', #144, 1000.000000000000000 ) ;
#127 = CARTESIAN_POINT ( 'NONE',  ( 0.0000000000000000000, -2.775557561562891400E-014, 0.0000000000000000000 ) ) ;
#128 = FILL_AREA_STYLE_COLOUR ( '', #212 ) ;
#129 = UNCERTAINTY_MEASURE_WITH_UNIT (LENGTH_MEASURE( 1.000000000000000100E-005 ), #6, 'distance_accuracy_value', 'NONE');
#130 = PRESENTATION_LAYER_ASSIGNMENT (  '', '', ( #215 ) ) ;
#131 = CIRCLE ( 'NONE', #181, 25.40000000000002000 ) ;
#132 = PRESENTATION_LAYER_ASSIGNMENT (  '', '', ( #167 ) ) ;
#133 = FACE_OUTER_BOUND ( 'NONE', #206, .T. ) ;
#134 = ORIENTED_EDGE ( 'NONE', *, *, #112, .T. ) ;
#135 = ADVANCED_FACE ( 'NONE', ( #133 ), #149, .F. ) ;
#136 = FACE_OUTER_BOUND ( 'NONE', #13, .T. ) ;
#137 = SURFACE_SIDE_STYLE ('',( #54 ) ) ;
#138 = AXIS2_PLACEMENT_3D ( 'NONE', #176, #203, #95 ) ;
#139 = ORIENTED_EDGE ( 'NONE', *, *, #81, .F. ) ;
#140 = SURFACE_STYLE_FILL_AREA ( #34 ) ;
#141 = APPLICATION_CONTEXT ( 'automotive_design' ) ;
#142 = DIRECTION ( 'NONE',  ( -0.0000000000000000000, 1.000000000000000000, -0.0000000000000000000 ) ) ;
#143 = EDGE_CURVE ( 'NONE', #213, #221, #242, .T. ) ;
#144 = DIRECTION ( 'NONE',  ( -0.0000000000000000000, 1.000000000000000000, -0.0000000000000000000 ) ) ;
#145 = ORIENTED_EDGE ( 'NONE', *, *, #158, .T. ) ;
#146 = AXIS2_PLACEMENT_3D ( 'NONE', #120, #1, #233 ) ;
#147 = CIRCLE ( 'NONE', #244, 25.40000000000002000 ) ;
#148 = CARTESIAN_POINT ( 'NONE',  ( 0.0000000000000000000, 12.69999999999998900, 0.0000000000000000000 ) ) ;
#149 = CYLINDRICAL_SURFACE ( 'NONE', #146, 20.50000000000001800 ) ;
#150 = UNCERTAINTY_MEASURE_WITH_UNIT (LENGTH_MEASURE( 1.000000000000000100E-005 ), #33, 'distance_accuracy_value', 'NONE');
#151 = SURFACE_STYLE_USAGE ( .BOTH. , #88 ) ;
#152 = AXIS2_PLACEMENT_3D ( 'NONE', #10, #205, #80 ) ;
#153 = ORIENTED_EDGE ( 'NONE', *, *, #172, .T. ) ;
#154 = DIRECTION ( 'NONE',  ( -0.0000000000000000000, 1.000000000000000000, -0.0000000000000000000 ) ) ;
#155 = EDGE_LOOP ( 'NONE', ( #56, #153 ) ) ;
#156 = EDGE_CURVE ( 'NONE', #59, #53, #157, .T. ) ;
#157 = CIRCLE ( 'NONE', #25, 20.50000000000002100 ) ;
#158 = EDGE_CURVE ( 'NONE', #52, #83, #35, .T. ) ;
#159 = CARTESIAN_POINT ( 'NONE',  ( 0.0000000000000000000, 12.69999999999998900, 0.0000000000000000000 ) ) ;
#160 = EDGE_LOOP ( 'NONE', ( #165, #217 ) ) ;
#161 = CARTESIAN_POINT ( 'NONE',  ( 0.0000000000000000000, -2.775557561562891400E-014, 0.0000000000000000000 ) ) ;
#162 =( NAMED_UNIT ( * ) PLANE_ANGLE_UNIT ( ) SI_UNIT ( $, .RADIAN. ) );
#163 = DIRECTION ( 'NONE',  ( 0.0000000000000000000, 0.0000000000000000000, 1.000000000000000000 ) ) ;
#164 = DIRECTION ( 'NONE',  ( -0.0000000000000000000, 1.000000000000000000, -0.0000000000000000000 ) ) ;
#165 = ORIENTED_EDGE ( 'NONE', *, *, #58, .F. ) ;
#166 = CARTESIAN_POINT ( 'NONE',  ( 3.110602869834279600E-015, 161.3761669434274500, -25.40000000000002000 ) ) ;
#167 = STYLED_ITEM ( 'NONE', ( #169 ), #15 ) ;
#168 = ORIENTED_EDGE ( 'NONE', *, *, #101, .F. ) ;
#169 = PRESENTATION_STYLE_ASSIGNMENT (( #121 ) ) ;
#170 = ORIENTED_EDGE ( 'NONE', *, *, #101, .T. ) ;
#171 = PRODUCT ( '503032', '503032', '', ( #76 ) ) ;
#172 = EDGE_CURVE ( 'NONE', #83, #221, #117, .T. ) ;
#173 = DIRECTION ( 'NONE',  ( 0.0000000000000000000, 0.0000000000000000000, 1.000000000000000000 ) ) ;
#174 = AXIS2_PLACEMENT_3D ( 'NONE', #243, #214, #196 ) ;
#175 = UNCERTAINTY_MEASURE_WITH_UNIT (LENGTH_MEASURE( 1.000000000000000100E-005 ), #220, 'distance_accuracy_value', 'NONE');
#176 = CARTESIAN_POINT ( 'NONE',  ( 0.0000000000000000000, -2.775557561562891400E-014, 0.0000000000000000000 ) ) ;
#177 = VERTEX_POINT ( 'NONE', #84 ) ;
#178 = LINE ( 'NONE', #99, #126 ) ;
#179 = DIRECTION ( 'NONE',  ( 0.0000000000000000000, 0.0000000000000000000, 1.000000000000000000 ) ) ;
#180 = DIRECTION ( 'NONE',  ( 0.0000000000000000000, 0.0000000000000000000, 1.000000000000000000 ) ) ;
#181 = AXIS2_PLACEMENT_3D ( 'NONE', #159, #75, #232 ) ;
#182 = DIRECTION ( 'NONE',  ( 0.0000000000000000000, 0.0000000000000000000, 1.000000000000000000 ) ) ;
#183 = SURFACE_STYLE_USAGE ( .BOTH. , #32 ) ;
#184 = CLOSED_SHELL ( 'NONE', ( #135, #27, #202, #116, #94, #118 ) ) ;
#185 = FACE_BOUND ( 'NONE', #115, .T. ) ;
#186 = STYLED_ITEM ( 'NONE', ( #210 ), #118 ) ;
#187 = CARTESIAN_POINT ( 'NONE',  ( 0.0000000000000000000, 12.69999999999998900, 25.40000000000002000 ) ) ;
#188 = EDGE_CURVE ( 'NONE', #53, #177, #178, .T. ) ;
#189 = DIRECTION ( 'NONE',  ( 0.0000000000000000000, 0.0000000000000000000, 1.000000000000000000 ) ) ;
#190 =( GEOMETRIC_REPRESENTATION_CONTEXT ( 3 ) GLOBAL_UNCERTAINTY_ASSIGNED_CONTEXT ( ( #114 ) ) GLOBAL_UNIT_ASSIGNED_CONTEXT ( ( #37, #193, #41 ) ) REPRESENTATION_CONTEXT ( 'NONE', 'WORKASPACE' ) );
#191 = MECHANICAL_DESIGN_GEOMETRIC_PRESENTATION_REPRESENTATION (  '', ( #66 ), #207 ) ;
#192 = ORIENTED_EDGE ( 'NONE', *, *, #143, .F. ) ;
#193 =( NAMED_UNIT ( * ) PLANE_ANGLE_UNIT ( ) SI_UNIT ( $, .RADIAN. ) );
#194 = COLOUR_RGB ( '',1.000000000000000000, 1.000000000000000000, 1.000000000000000000 ) ;
#195 = MECHANICAL_DESIGN_GEOMETRIC_PRESENTATION_REPRESENTATION (  '', ( #167 ), #79 ) ;
#196 = DIRECTION ( 'NONE',  ( 0.0000000000000000000, 0.0000000000000000000, 1.000000000000000000 ) ) ;
#197 = FILL_AREA_STYLE_COLOUR ( '', #64 ) ;
#198 = CYLINDRICAL_SURFACE ( 'NONE', #174, 25.40000000000002000 ) ;
#199 = DIRECTION ( 'NONE',  ( -0.0000000000000000000, 1.000000000000000000, -0.0000000000000000000 ) ) ;
#200 = VECTOR ( 'NONE', #30, 1000.000000000000000 ) ;
#201 = EDGE_LOOP ( 'NONE', ( #68, #96, #43, #240 ) ) ;
#202 = ADVANCED_FACE ( 'NONE', ( #104, #185 ), #209, .F. ) ;
#203 = DIRECTION ( 'NONE',  ( -0.0000000000000000000, 1.000000000000000000, -0.0000000000000000000 ) ) ;
#204 = SURFACE_STYLE_USAGE ( .BOTH. , #137 ) ;
#205 = DIRECTION ( 'NONE',  ( -0.0000000000000000000, 1.000000000000000000, -0.0000000000000000000 ) ) ;
#206 = EDGE_LOOP ( 'NONE', ( #216, #90, #55, #168 ) ) ;
#207 =( GEOMETRIC_REPRESENTATION_CONTEXT ( 3 ) GLOBAL_UNCERTAINTY_ASSIGNED_CONTEXT ( ( #175 ) ) GLOBAL_UNIT_ASSIGNED_CONTEXT ( ( #220, #98, #113 ) ) REPRESENTATION_CONTEXT ( 'NONE', 'WORKASPACE' ) );
#208 = DIRECTION ( 'NONE',  ( 0.0000000000000000000, -0.0000000000000000000, -1.000000000000000000 ) ) ;
#209 = PLANE ( 'NONE',  #229 ) ;
#210 = PRESENTATION_STYLE_ASSIGNMENT (( #204 ) ) ;
#211 = ORIENTED_EDGE ( 'NONE', *, *, #58, .T. ) ;
#212 = COLOUR_RGB ( '',1.000000000000000000, 1.000000000000000000, 1.000000000000000000 ) ;
#213 = VERTEX_POINT ( 'NONE', #125 ) ;
#214 = DIRECTION ( 'NONE',  ( -0.0000000000000000000, 1.000000000000000000, -0.0000000000000000000 ) ) ;
#215 = STYLED_ITEM ( 'NONE', ( #93 ), #39 ) ;
#216 = ORIENTED_EDGE ( 'NONE', *, *, #112, .F. ) ;
#217 = ORIENTED_EDGE ( 'NONE', *, *, #40, .F. ) ;
#218 = PRODUCT_DEFINITION_SHAPE ( 'NONE', 'NONE',  #60 ) ;
#219 = PLANE ( 'NONE',  #124 ) ;
#220 =( LENGTH_UNIT ( ) NAMED_UNIT ( * ) SI_UNIT ( .MILLI., .METRE. ) );
#221 = VERTEX_POINT ( 'NONE', #187 ) ;
#222 = AXIS2_PLACEMENT_3D ( 'NONE', #67, #142, #102 ) ;
#223 = APPLICATION_PROTOCOL_DEFINITION ( 'draft international standard', 'automotive_design', 1998, #141 ) ;
#224 =( NAMED_UNIT ( * ) PLANE_ANGLE_UNIT ( ) SI_UNIT ( $, .RADIAN. ) );
#225 = DIRECTION ( 'NONE',  ( -0.0000000000000000000, 1.000000000000000000, -0.0000000000000000000 ) ) ;
#226 = CARTESIAN_POINT ( 'NONE',  ( 2.510525938252076500E-015, -2.775557561562891400E-014, -20.50000000000002100 ) ) ;
#227 =( GEOMETRIC_REPRESENTATION_CONTEXT ( 3 ) GLOBAL_UNCERTAINTY_ASSIGNED_CONTEXT ( ( #150 ) ) GLOBAL_UNIT_ASSIGNED_CONTEXT ( ( #33, #162, #78 ) ) REPRESENTATION_CONTEXT ( 'NONE', 'WORKASPACE' ) );
#228 = DIRECTION ( 'NONE',  ( 0.0000000000000000000, 0.0000000000000000000, 1.000000000000000000 ) ) ;
#229 = AXIS2_PLACEMENT_3D ( 'NONE', #51, #235, #189 ) ;
#230 = CYLINDRICAL_SURFACE ( 'NONE', #16, 25.40000000000002000 ) ;
#231 = CARTESIAN_POINT ( 'NONE',  ( 20.50000000000001800, 12.69999999999998500, 0.0000000000000000000 ) ) ;
#232 = DIRECTION ( 'NONE',  ( 0.0000000000000000000, 0.0000000000000000000, 1.000000000000000000 ) ) ;
#233 = DIRECTION ( 'NONE',  ( 0.0000000000000000000, 0.0000000000000000000, 1.000000000000000000 ) ) ;
#234 = VERTEX_POINT ( 'NONE', #11 ) ;
#235 = DIRECTION ( 'NONE',  ( -0.0000000000000000000, 1.000000000000000000, 0.0000000000000000000 ) ) ;
#236 =( NAMED_UNIT ( * ) SI_UNIT ( $, .STERADIAN. ) SOLID_ANGLE_UNIT ( ) );
#237 = FACE_BOUND ( 'NONE', #49, .T. ) ;
#238 = UNCERTAINTY_MEASURE_WITH_UNIT (LENGTH_MEASURE( 1.000000000000000100E-005 ), #105, 'distance_accuracy_value', 'NONE');
#239 = PRODUCT_RELATED_PRODUCT_CATEGORY ( 'part', '', ( #171 ) ) ;
#240 = ORIENTED_EDGE ( 'NONE', *, *, #172, .F. ) ;
#241 = LINE ( 'NONE', #62, #200 ) ;
#242 = LINE ( 'NONE', #122, #46 ) ;
#243 = CARTESIAN_POINT ( 'NONE',  ( 0.0000000000000000000, 161.3761669434274500, 0.0000000000000000000 ) ) ;
#244 = AXIS2_PLACEMENT_3D ( 'NONE', #19, #89, #228 ) ;
ENDSEC;
END-ISO-10303-21;
