ISO-10303-21;
HEADER;
FILE_DESCRIPTION (( 'STEP AP214' ),
    '1' );
FILE_NAME ('504037.STEP',
    '2019-09-05T07:18:27',
    ( 'user' ),
    ( 'Î¢ÈíÖÐ¹ú' ),
    'SwSTEP 2.0',
    'SolidWorks 2016',
    '' );
FILE_SCHEMA (( 'AUTOMOTIVE_DESIGN' ));
ENDSEC;

DATA;
#1 = LINE ( 'NONE', #216, #116 ) ;
#2 =( NAMED_UNIT ( * ) PLANE_ANGLE_UNIT ( ) SI_UNIT ( $, .RADIAN. ) );
#3 = CARTESIAN_POINT ( 'NONE',  ( 3.110602869834276900E-015, 11.00000000000000000, 25.39999999999999900 ) ) ;
#4 = CIRCLE ( 'NONE', #157, 20.50000000000000000 ) ;
#5 = DIRECTION ( 'NONE',  ( 0.0000000000000000000, 1.000000000000000000, 0.0000000000000000000 ) ) ;
#6 = EDGE_CURVE ( 'NONE', #24, #64, #48, .T. ) ;
#7 = CYLINDRICAL_SURFACE ( 'NONE', #78, 20.50000000000000000 ) ;
#8 = SHAPE_DEFINITION_REPRESENTATION ( #228, #219 ) ;
#9 = VECTOR ( 'NONE', #214, 1000.000000000000000 ) ;
#10 = ORIENTED_EDGE ( 'NONE', *, *, #25, .T. ) ;
#11 = EDGE_CURVE ( 'NONE', #22, #179, #229, .T. ) ;
#12 = PRESENTATION_LAYER_ASSIGNMENT (  '', '', ( #184 ) ) ;
#13 = CIRCLE ( 'NONE', #136, 20.50000000000000000 ) ;
#14 = DIRECTION ( 'NONE',  ( 0.0000000000000000000, -0.0000000000000000000, 1.000000000000000000 ) ) ;
#15 = EDGE_LOOP ( 'NONE', ( #158, #67 ) ) ;
#16 = EDGE_LOOP ( 'NONE', ( #186, #91, #92, #88 ) ) ;
#17 = DIRECTION ( 'NONE',  ( 0.0000000000000000000, 1.000000000000000000, 0.0000000000000000000 ) ) ;
#18 = EDGE_CURVE ( 'NONE', #64, #24, #20, .T. ) ;
#19 = SURFACE_SIDE_STYLE ('',( #23 ) ) ;
#20 = CIRCLE ( 'NONE', #51, 25.39999999999999900 ) ;
#21 = DIRECTION ( 'NONE',  ( 0.0000000000000000000, 1.000000000000000000, 0.0000000000000000000 ) ) ;
#22 = VERTEX_POINT ( 'NONE', #227 ) ;
#23 = SURFACE_STYLE_FILL_AREA ( #101 ) ;
#24 = VERTEX_POINT ( 'NONE', #162 ) ;
#25 = EDGE_CURVE ( 'NONE', #22, #64, #167, .T. ) ;
#26 = FILL_AREA_STYLE_COLOUR ( '', #171 ) ;
#27 = ORIENTED_EDGE ( 'NONE', *, *, #242, .F. ) ;
#28 = SURFACE_STYLE_FILL_AREA ( #220 ) ;
#29 = VERTEX_POINT ( 'NONE', #213 ) ;
#30 = ORIENTED_EDGE ( 'NONE', *, *, #121, .T. ) ;
#31 = ORIENTED_EDGE ( 'NONE', *, *, #18, .T. ) ;
#32 = APPLICATION_PROTOCOL_DEFINITION ( 'draft international standard', 'automotive_design', 1998, #178 ) ;
#33 = EDGE_CURVE ( 'NONE', #179, #22, #224, .T. ) ;
#34 = SURFACE_STYLE_FILL_AREA ( #58 ) ;
#35 =( NAMED_UNIT ( * ) PLANE_ANGLE_UNIT ( ) SI_UNIT ( $, .RADIAN. ) );
#36 = ADVANCED_FACE ( 'NONE', ( #149, #135 ), #72, .F. ) ;
#37 = DIRECTION ( 'NONE',  ( 0.0000000000000000000, 0.0000000000000000000, 1.000000000000000000 ) ) ;
#38 =( LENGTH_UNIT ( ) NAMED_UNIT ( * ) SI_UNIT ( .MILLI., .METRE. ) );
#39 = COLOUR_RGB ( '',1.000000000000000000, 1.000000000000000000, 1.000000000000000000 ) ;
#40 =( NAMED_UNIT ( * ) SI_UNIT ( $, .STERADIAN. ) SOLID_ANGLE_UNIT ( ) );
#41 = ADVANCED_FACE ( 'NONE', ( #129 ), #94, .T. ) ;
#42 = FACE_BOUND ( 'NONE', #15, .T. ) ;
#43 = FACE_OUTER_BOUND ( 'NONE', #133, .T. ) ;
#44 = VERTEX_POINT ( 'NONE', #164 ) ;
#45 = DIRECTION ( 'NONE',  ( 0.0000000000000000000, -0.0000000000000000000, 1.000000000000000000 ) ) ;
#46 = VECTOR ( 'NONE', #240, 1000.000000000000000 ) ;
#47 = CYLINDRICAL_SURFACE ( 'NONE', #127, 20.50000000000000000 ) ;
#48 = CIRCLE ( 'NONE', #197, 25.39999999999999900 ) ;
#49 = ORIENTED_EDGE ( 'NONE', *, *, #187, .T. ) ;
#50 = PRESENTATION_STYLE_ASSIGNMENT (( #148 ) ) ;
#51 = AXIS2_PLACEMENT_3D ( 'NONE', #68, #21, #37 ) ;
#52 = PRESENTATION_STYLE_ASSIGNMENT (( #134 ) ) ;
#53 = CARTESIAN_POINT ( 'NONE',  ( 0.0000000000000000000, 11.00000000000000000, 0.0000000000000000000 ) ) ;
#54 = DIRECTION ( 'NONE',  ( 0.0000000000000000000, 1.000000000000000000, 0.0000000000000000000 ) ) ;
#55 = FACE_OUTER_BOUND ( 'NONE', #235, .T. ) ;
#56 = EDGE_LOOP ( 'NONE', ( #98, #108, #89, #74 ) ) ;
#57 = ORIENTED_EDGE ( 'NONE', *, *, #33, .T. ) ;
#58 = FILL_AREA_STYLE ('',( #141 ) ) ;
#59 = FACE_OUTER_BOUND ( 'NONE', #237, .T. ) ;
#60 = SURFACE_STYLE_USAGE ( .BOTH. , #90 ) ;
#61 = PRODUCT_DEFINITION_CONTEXT ( 'detailed design', #231, 'design' ) ;
#62 =( NAMED_UNIT ( * ) SI_UNIT ( $, .STERADIAN. ) SOLID_ANGLE_UNIT ( ) );
#63 = ORIENTED_EDGE ( 'NONE', *, *, #18, .F. ) ;
#64 = VERTEX_POINT ( 'NONE', #183 ) ;
#65 =( GEOMETRIC_REPRESENTATION_CONTEXT ( 3 ) GLOBAL_UNCERTAINTY_ASSIGNED_CONTEXT ( ( #145 ) ) GLOBAL_UNIT_ASSIGNED_CONTEXT ( ( #243, #2, #201 ) ) REPRESENTATION_CONTEXT ( 'NONE', 'WORKASPACE' ) );
#66 = EDGE_LOOP ( 'NONE', ( #63, #128 ) ) ;
#67 = ORIENTED_EDGE ( 'NONE', *, *, #85, .F. ) ;
#68 = CARTESIAN_POINT ( 'NONE',  ( 0.0000000000000000000, 0.0000000000000000000, 0.0000000000000000000 ) ) ;
#69 = DIRECTION ( 'NONE',  ( 0.0000000000000000000, 1.000000000000000000, 0.0000000000000000000 ) ) ;
#70 = AXIS2_PLACEMENT_3D ( 'NONE', #241, #17, #212 ) ;
#71 = ADVANCED_FACE ( 'NONE', ( #55 ), #161, .T. ) ;
#72 = PLANE ( 'NONE',  #233 ) ;
#73 = ORIENTED_EDGE ( 'NONE', *, *, #200, .F. ) ;
#74 = ORIENTED_EDGE ( 'NONE', *, *, #25, .F. ) ;
#75 = ORIENTED_EDGE ( 'NONE', *, *, #204, .F. ) ;
#76 = UNCERTAINTY_MEASURE_WITH_UNIT (LENGTH_MEASURE( 1.000000000000000100E-005 ), #144, 'distance_accuracy_value', 'NONE');
#77 = CIRCLE ( 'NONE', #202, 20.50000000000000000 ) ;
#78 = AXIS2_PLACEMENT_3D ( 'NONE', #115, #172, #175 ) ;
#79 = PRESENTATION_STYLE_ASSIGNMENT (( #165 ) ) ;
#80 = UNCERTAINTY_MEASURE_WITH_UNIT (LENGTH_MEASURE( 1.000000000000000100E-005 ), #142, 'distance_accuracy_value', 'NONE');
#81 = SURFACE_SIDE_STYLE ('',( #199 ) ) ;
#82 =( GEOMETRIC_REPRESENTATION_CONTEXT ( 3 ) GLOBAL_UNCERTAINTY_ASSIGNED_CONTEXT ( ( #222 ) ) GLOBAL_UNIT_ASSIGNED_CONTEXT ( ( #126, #35, #62 ) ) REPRESENTATION_CONTEXT ( 'NONE', 'WORKASPACE' ) );
#83 = CARTESIAN_POINT ( 'NONE',  ( 0.0000000000000000000, 0.0000000000000000000, 0.0000000000000000000 ) ) ;
#84 = DIRECTION ( 'NONE',  ( 0.0000000000000000000, 1.000000000000000000, 0.0000000000000000000 ) ) ;
#85 = EDGE_CURVE ( 'NONE', #223, #29, #13, .T. ) ;
#86 = MANIFOLD_SOLID_BREP ( 'Í¹Ì¨-À­Éì1', #169 ) ;
#87 = DIRECTION ( 'NONE',  ( -0.0000000000000000000, -1.000000000000000000, -0.0000000000000000000 ) ) ;
#88 = ORIENTED_EDGE ( 'NONE', *, *, #121, .F. ) ;
#89 = ORIENTED_EDGE ( 'NONE', *, *, #6, .T. ) ;
#90 = SURFACE_SIDE_STYLE ('',( #28 ) ) ;
#91 = ORIENTED_EDGE ( 'NONE', *, *, #204, .T. ) ;
#92 = ORIENTED_EDGE ( 'NONE', *, *, #187, .F. ) ;
#93 = LINE ( 'NONE', #206, #103 ) ;
#94 = CYLINDRICAL_SURFACE ( 'NONE', #105, 25.39999999999999900 ) ;
#95 = FILL_AREA_STYLE ('',( #26 ) ) ;
#96 = STYLED_ITEM ( 'NONE', ( #79 ), #219 ) ;
#97 = DIRECTION ( 'NONE',  ( 0.0000000000000000000, 0.0000000000000000000, -1.000000000000000000 ) ) ;
#98 = ORIENTED_EDGE ( 'NONE', *, *, #33, .F. ) ;
#99 = LINE ( 'NONE', #180, #9 ) ;
#100 = CARTESIAN_POINT ( 'NONE',  ( 0.0000000000000000000, 0.0000000000000000000, 0.0000000000000000000 ) ) ;
#101 = FILL_AREA_STYLE ('',( #154 ) ) ;
#102 = CIRCLE ( 'NONE', #114, 20.50000000000000000 ) ;
#103 = VECTOR ( 'NONE', #87, 1000.000000000000000 ) ;
#104 = PRESENTATION_LAYER_ASSIGNMENT (  '', '', ( #96 ) ) ;
#105 = AXIS2_PLACEMENT_3D ( 'NONE', #209, #244, #112 ) ;
#106 = MECHANICAL_DESIGN_GEOMETRIC_PRESENTATION_REPRESENTATION (  '', ( #194 ), #147 ) ;
#107 = MECHANICAL_DESIGN_GEOMETRIC_PRESENTATION_REPRESENTATION (  '', ( #143 ), #65 ) ;
#108 = ORIENTED_EDGE ( 'NONE', *, *, #200, .T. ) ;
#109 =( NAMED_UNIT ( * ) PLANE_ANGLE_UNIT ( ) SI_UNIT ( $, .RADIAN. ) );
#110 = PRODUCT ( '504037', '504037', '', ( #185 ) ) ;
#111 = DIRECTION ( 'NONE',  ( 1.000000000000000000, 0.0000000000000000000, 0.0000000000000000000 ) ) ;
#112 = DIRECTION ( 'NONE',  ( 0.0000000000000000000, 0.0000000000000000000, -1.000000000000000000 ) ) ;
#113 = DIRECTION ( 'NONE',  ( -0.0000000000000000000, -1.000000000000000000, -0.0000000000000000000 ) ) ;
#114 = AXIS2_PLACEMENT_3D ( 'NONE', #230, #166, #156 ) ;
#115 = CARTESIAN_POINT ( 'NONE',  ( 0.0000000000000000000, 11.00000000000000000, 0.0000000000000000000 ) ) ;
#116 = VECTOR ( 'NONE', #113, 1000.000000000000000 ) ;
#117 = MECHANICAL_DESIGN_GEOMETRIC_PRESENTATION_REPRESENTATION (  '', ( #96 ), #170 ) ;
#118 = DIRECTION ( 'NONE',  ( 0.0000000000000000000, 0.0000000000000000000, 1.000000000000000000 ) ) ;
#119 = DIRECTION ( 'NONE',  ( 0.0000000000000000000, 0.0000000000000000000, 1.000000000000000000 ) ) ;
#120 = CARTESIAN_POINT ( 'NONE',  ( 0.0000000000000000000, 0.0000000000000000000, 0.0000000000000000000 ) ) ;
#121 = EDGE_CURVE ( 'NONE', #29, #153, #1, .T. ) ;
#122 = CARTESIAN_POINT ( 'NONE',  ( 0.0000000000000000000, 0.0000000000000000000, 0.0000000000000000000 ) ) ;
#123 = ADVANCED_FACE ( 'NONE', ( #173 ), #47, .F. ) ;
#124 = AXIS2_PLACEMENT_3D ( 'NONE', #196, #177, #159 ) ;
#125 = COLOUR_RGB ( '',1.000000000000000000, 1.000000000000000000, 1.000000000000000000 ) ;
#126 =( LENGTH_UNIT ( ) NAMED_UNIT ( * ) SI_UNIT ( .MILLI., .METRE. ) );
#127 = AXIS2_PLACEMENT_3D ( 'NONE', #53, #140, #97 ) ;
#128 = ORIENTED_EDGE ( 'NONE', *, *, #6, .F. ) ;
#129 = FACE_OUTER_BOUND ( 'NONE', #56, .T. ) ;
#130 = CARTESIAN_POINT ( 'NONE',  ( 2.510525938252074500E-015, 11.00000000000000000, 20.50000000000000000 ) ) ;
#131 = AXIS2_PLACEMENT_3D ( 'NONE', #174, #217, #45 ) ;
#132 = AXIS2_PLACEMENT_3D ( 'NONE', #226, #84, #238 ) ;
#133 = EDGE_LOOP ( 'NONE', ( #155, #57 ) ) ;
#134 = SURFACE_STYLE_USAGE ( .BOTH. , #19 ) ;
#135 = FACE_BOUND ( 'NONE', #150, .T. ) ;
#136 = AXIS2_PLACEMENT_3D ( 'NONE', #232, #54, #146 ) ;
#137 = CARTESIAN_POINT ( 'NONE',  ( 0.0000000000000000000, 11.00000000000000000, -25.39999999999999900 ) ) ;
#138 =( GEOMETRIC_REPRESENTATION_CONTEXT ( 3 ) GLOBAL_UNCERTAINTY_ASSIGNED_CONTEXT ( ( #80 ) ) GLOBAL_UNIT_ASSIGNED_CONTEXT ( ( #142, #109, #221 ) ) REPRESENTATION_CONTEXT ( 'NONE', 'WORKASPACE' ) );
#139 = DIRECTION ( 'NONE',  ( 0.0000000000000000000, 0.0000000000000000000, 1.000000000000000000 ) ) ;
#140 = DIRECTION ( 'NONE',  ( -0.0000000000000000000, -1.000000000000000000, -0.0000000000000000000 ) ) ;
#141 = FILL_AREA_STYLE_COLOUR ( '', #39 ) ;
#142 =( LENGTH_UNIT ( ) NAMED_UNIT ( * ) SI_UNIT ( .MILLI., .METRE. ) );
#143 = STYLED_ITEM ( 'NONE', ( #50 ), #168 ) ;
#144 =( LENGTH_UNIT ( ) NAMED_UNIT ( * ) SI_UNIT ( .MILLI., .METRE. ) );
#145 = UNCERTAINTY_MEASURE_WITH_UNIT (LENGTH_MEASURE( 1.000000000000000100E-005 ), #243, 'distance_accuracy_value', 'NONE');
#146 = DIRECTION ( 'NONE',  ( 0.0000000000000000000, 0.0000000000000000000, 1.000000000000000000 ) ) ;
#147 =( GEOMETRIC_REPRESENTATION_CONTEXT ( 3 ) GLOBAL_UNCERTAINTY_ASSIGNED_CONTEXT ( ( #76 ) ) GLOBAL_UNIT_ASSIGNED_CONTEXT ( ( #144, #198, #40 ) ) REPRESENTATION_CONTEXT ( 'NONE', 'WORKASPACE' ) );
#148 = SURFACE_STYLE_USAGE ( .BOTH. , #181 ) ;
#149 = FACE_OUTER_BOUND ( 'NONE', #66, .T. ) ;
#150 = EDGE_LOOP ( 'NONE', ( #49, #192 ) ) ;
#151 = UNCERTAINTY_MEASURE_WITH_UNIT (LENGTH_MEASURE( 1.000000000000000100E-005 ), #38, 'distance_accuracy_value', 'NONE');
#152 = ADVANCED_FACE ( 'NONE', ( #43, #42 ), #189, .T. ) ;
#153 = VERTEX_POINT ( 'NONE', #188 ) ;
#154 = FILL_AREA_STYLE_COLOUR ( '', #211 ) ;
#155 = ORIENTED_EDGE ( 'NONE', *, *, #11, .T. ) ;
#156 = DIRECTION ( 'NONE',  ( 0.0000000000000000000, 0.0000000000000000000, 1.000000000000000000 ) ) ;
#157 = AXIS2_PLACEMENT_3D ( 'NONE', #83, #191, #118 ) ;
#158 = ORIENTED_EDGE ( 'NONE', *, *, #215, .F. ) ;
#159 = DIRECTION ( 'NONE',  ( 0.0000000000000000000, 0.0000000000000000000, -1.000000000000000000 ) ) ;
#160 = CARTESIAN_POINT ( 'NONE',  ( 0.0000000000000000000, 0.0000000000000000000, 0.0000000000000000000 ) ) ;
#161 = CYLINDRICAL_SURFACE ( 'NONE', #124, 25.39999999999999900 ) ;
#162 = CARTESIAN_POINT ( 'NONE',  ( 3.110602869834276900E-015, 0.0000000000000000000, 25.39999999999999900 ) ) ;
#163 = PRESENTATION_STYLE_ASSIGNMENT (( #60 ) ) ;
#164 = CARTESIAN_POINT ( 'NONE',  ( 2.510525938252074500E-015, 0.0000000000000000000, 20.50000000000000000 ) ) ;
#165 = SURFACE_STYLE_USAGE ( .BOTH. , #81 ) ;
#166 = DIRECTION ( 'NONE',  ( 0.0000000000000000000, 1.000000000000000000, 0.0000000000000000000 ) ) ;
#167 = LINE ( 'NONE', #137, #46 ) ;
#168 = ADVANCED_FACE ( 'NONE', ( #59 ), #7, .F. ) ;
#169 = CLOSED_SHELL ( 'NONE', ( #123, #41, #152, #36, #71, #168 ) ) ;
#170 =( GEOMETRIC_REPRESENTATION_CONTEXT ( 3 ) GLOBAL_UNCERTAINTY_ASSIGNED_CONTEXT ( ( #151 ) ) GLOBAL_UNIT_ASSIGNED_CONTEXT ( ( #38, #203, #218 ) ) REPRESENTATION_CONTEXT ( 'NONE', 'WORKASPACE' ) );
#171 = COLOUR_RGB ( '',1.000000000000000000, 1.000000000000000000, 1.000000000000000000 ) ;
#172 = DIRECTION ( 'NONE',  ( -0.0000000000000000000, -1.000000000000000000, -0.0000000000000000000 ) ) ;
#173 = FACE_OUTER_BOUND ( 'NONE', #16, .T. ) ;
#174 = CARTESIAN_POINT ( 'NONE',  ( 0.0000000000000000000, 11.00000000000000000, 0.0000000000000000000 ) ) ;
#175 = DIRECTION ( 'NONE',  ( 0.0000000000000000000, 0.0000000000000000000, -1.000000000000000000 ) ) ;
#176 = AXIS2_PLACEMENT_3D ( 'NONE', #100, #119, #111 ) ;
#177 = DIRECTION ( 'NONE',  ( -0.0000000000000000000, -1.000000000000000000, -0.0000000000000000000 ) ) ;
#178 = APPLICATION_CONTEXT ( 'automotive_design' ) ;
#179 = VERTEX_POINT ( 'NONE', #3 ) ;
#180 = CARTESIAN_POINT ( 'NONE',  ( 3.110602869834276900E-015, 11.00000000000000000, 25.39999999999999900 ) ) ;
#181 = SURFACE_SIDE_STYLE ('',( #34 ) ) ;
#182 = PRODUCT_DEFINITION ( 'Î´Öª', '', #193, #61 ) ;
#183 = CARTESIAN_POINT ( 'NONE',  ( 0.0000000000000000000, 0.0000000000000000000, -25.39999999999999900 ) ) ;
#184 = STYLED_ITEM ( 'NONE', ( #52 ), #123 ) ;
#185 = PRODUCT_CONTEXT ( 'NONE', #178, 'mechanical' ) ;
#186 = ORIENTED_EDGE ( 'NONE', *, *, #215, .T. ) ;
#187 = EDGE_CURVE ( 'NONE', #153, #44, #77, .T. ) ;
#188 = CARTESIAN_POINT ( 'NONE',  ( 0.0000000000000000000, 0.0000000000000000000, -20.50000000000000000 ) ) ;
#189 = PLANE ( 'NONE',  #131 ) ;
#190 = PRODUCT_RELATED_PRODUCT_CATEGORY ( 'part', '', ( #110 ) ) ;
#191 = DIRECTION ( 'NONE',  ( 0.0000000000000000000, 1.000000000000000000, 0.0000000000000000000 ) ) ;
#192 = ORIENTED_EDGE ( 'NONE', *, *, #242, .T. ) ;
#193 = PRODUCT_DEFINITION_FORMATION_WITH_SPECIFIED_SOURCE ( 'ÈÎºÎ', '', #110, .NOT_KNOWN. ) ;
#194 = STYLED_ITEM ( 'NONE', ( #163 ), #86 ) ;
#195 = APPLICATION_PROTOCOL_DEFINITION ( 'draft international standard', 'automotive_design', 1998, #231 ) ;
#196 = CARTESIAN_POINT ( 'NONE',  ( 0.0000000000000000000, 11.00000000000000000, 0.0000000000000000000 ) ) ;
#197 = AXIS2_PLACEMENT_3D ( 'NONE', #122, #69, #139 ) ;
#198 =( NAMED_UNIT ( * ) PLANE_ANGLE_UNIT ( ) SI_UNIT ( $, .RADIAN. ) );
#199 = SURFACE_STYLE_FILL_AREA ( #95 ) ;
#200 = EDGE_CURVE ( 'NONE', #179, #24, #99, .T. ) ;
#201 =( NAMED_UNIT ( * ) SI_UNIT ( $, .STERADIAN. ) SOLID_ANGLE_UNIT ( ) );
#202 = AXIS2_PLACEMENT_3D ( 'NONE', #120, #5, #234 ) ;
#203 =( NAMED_UNIT ( * ) PLANE_ANGLE_UNIT ( ) SI_UNIT ( $, .RADIAN. ) );
#204 = EDGE_CURVE ( 'NONE', #223, #44, #93, .T. ) ;
#205 = MECHANICAL_DESIGN_GEOMETRIC_PRESENTATION_REPRESENTATION (  '', ( #184 ), #138 ) ;
#206 = CARTESIAN_POINT ( 'NONE',  ( 2.510525938252074500E-015, 11.00000000000000000, 20.50000000000000000 ) ) ;
#207 = PRESENTATION_LAYER_ASSIGNMENT (  '', '', ( #143 ) ) ;
#208 = FILL_AREA_STYLE_COLOUR ( '', #125 ) ;
#209 = CARTESIAN_POINT ( 'NONE',  ( 0.0000000000000000000, 11.00000000000000000, 0.0000000000000000000 ) ) ;
#210 = ORIENTED_EDGE ( 'NONE', *, *, #85, .T. ) ;
#211 = COLOUR_RGB ( '',1.000000000000000000, 1.000000000000000000, 1.000000000000000000 ) ;
#212 = DIRECTION ( 'NONE',  ( 0.0000000000000000000, 0.0000000000000000000, 1.000000000000000000 ) ) ;
#213 = CARTESIAN_POINT ( 'NONE',  ( 0.0000000000000000000, 11.00000000000000000, -20.50000000000000000 ) ) ;
#214 = DIRECTION ( 'NONE',  ( -0.0000000000000000000, -1.000000000000000000, -0.0000000000000000000 ) ) ;
#215 = EDGE_CURVE ( 'NONE', #29, #223, #102, .T. ) ;
#216 = CARTESIAN_POINT ( 'NONE',  ( 0.0000000000000000000, 11.00000000000000000, -20.50000000000000000 ) ) ;
#217 = DIRECTION ( 'NONE',  ( 0.0000000000000000000, 1.000000000000000000, 0.0000000000000000000 ) ) ;
#218 =( NAMED_UNIT ( * ) SI_UNIT ( $, .STERADIAN. ) SOLID_ANGLE_UNIT ( ) );
#219 = ADVANCED_BREP_SHAPE_REPRESENTATION ( '504037', ( #86, #176 ), #82 ) ;
#220 = FILL_AREA_STYLE ('',( #208 ) ) ;
#221 =( NAMED_UNIT ( * ) SI_UNIT ( $, .STERADIAN. ) SOLID_ANGLE_UNIT ( ) );
#222 = UNCERTAINTY_MEASURE_WITH_UNIT (LENGTH_MEASURE( 1.000000000000000100E-005 ), #126, 'distance_accuracy_value', 'NONE');
#223 = VERTEX_POINT ( 'NONE', #130 ) ;
#224 = CIRCLE ( 'NONE', #132, 25.39999999999999900 ) ;
#225 = ORIENTED_EDGE ( 'NONE', *, *, #11, .F. ) ;
#226 = CARTESIAN_POINT ( 'NONE',  ( 0.0000000000000000000, 11.00000000000000000, 0.0000000000000000000 ) ) ;
#227 = CARTESIAN_POINT ( 'NONE',  ( 0.0000000000000000000, 11.00000000000000000, -25.39999999999999900 ) ) ;
#228 = PRODUCT_DEFINITION_SHAPE ( 'NONE', 'NONE',  #182 ) ;
#229 = CIRCLE ( 'NONE', #70, 25.39999999999999900 ) ;
#230 = CARTESIAN_POINT ( 'NONE',  ( 0.0000000000000000000, 11.00000000000000000, 0.0000000000000000000 ) ) ;
#231 = APPLICATION_CONTEXT ( 'automotive_design' ) ;
#232 = CARTESIAN_POINT ( 'NONE',  ( 0.0000000000000000000, 11.00000000000000000, 0.0000000000000000000 ) ) ;
#233 = AXIS2_PLACEMENT_3D ( 'NONE', #160, #239, #14 ) ;
#234 = DIRECTION ( 'NONE',  ( 0.0000000000000000000, 0.0000000000000000000, 1.000000000000000000 ) ) ;
#235 = EDGE_LOOP ( 'NONE', ( #73, #225, #10, #31 ) ) ;
#236 = PRESENTATION_LAYER_ASSIGNMENT (  '', '', ( #194 ) ) ;
#237 = EDGE_LOOP ( 'NONE', ( #75, #210, #30, #27 ) ) ;
#238 = DIRECTION ( 'NONE',  ( 0.0000000000000000000, 0.0000000000000000000, 1.000000000000000000 ) ) ;
#239 = DIRECTION ( 'NONE',  ( 0.0000000000000000000, 1.000000000000000000, 0.0000000000000000000 ) ) ;
#240 = DIRECTION ( 'NONE',  ( -0.0000000000000000000, -1.000000000000000000, -0.0000000000000000000 ) ) ;
#241 = CARTESIAN_POINT ( 'NONE',  ( 0.0000000000000000000, 11.00000000000000000, 0.0000000000000000000 ) ) ;
#242 = EDGE_CURVE ( 'NONE', #44, #153, #4, .T. ) ;
#243 =( LENGTH_UNIT ( ) NAMED_UNIT ( * ) SI_UNIT ( .MILLI., .METRE. ) );
#244 = DIRECTION ( 'NONE',  ( -0.0000000000000000000, -1.000000000000000000, -0.0000000000000000000 ) ) ;
ENDSEC;
END-ISO-10303-21;
